  0
SECTION
  2
HEADER
  9
$ACADVER
  1
AC1014
  9
$ACADMAINTVER
 70
         0
  9
$DWGCODEPAGE
  3
ANSI_1252
  9
$INSBASE
 10
0.0
 20
0.0
 30
0.0
  9
$EXTMIN
 10
-26.5
 20
-1.9685
 30
0.0
  9
$EXTMAX
 10
97.53
 20
70.3395
 30
0.0
  9
$LIMMIN
 10
0.0
 20
0.0
  9
$LIMMAX
 10
0.0
 20
0.0
  9
$ORTHOMODE
 70
         0
  9
$REGENMODE
 70
         1
  9
$FILLMODE
 70
         1
  9
$QTEXTMODE
 70
         0
  9
$MIRRTEXT
 70
         1
  9
$DRAGMODE
 70
         2
  9
$LTSCALE
 40
1.0
  9
$OSMODE
 70
         0
  9
$ATTMODE
 70
         1
  9
$TEXTSIZE
 40
0.2
  9
$TRACEWID
 40
0.05
  9
$TEXTSTYLE
  7
STANDARD
  9
$CLAYER
  8
0
  9
$CELTYPE
  6
CONTINUOUS
  9
$CECOLOR
 62
       256
  9
$CELTSCALE
 40
1.0
  9
$DELOBJ
 70
         1
  9
$DISPSILH
 70
         0
  9
$DIMSCALE
 40
1.0
  9
$DIMASZ
 40
0.18
  9
$DIMEXO
 40
0.0625
  9
$DIMDLI
 40
0.38
  9
$DIMRND
 40
0.0
  9
$DIMDLE
 40
0.0
  9
$DIMEXE
 40
0.18
  9
$DIMTP
 40
0.0
  9
$DIMTM
 40
0.0
  9
$DIMTXT
 40
0.18
  9
$DIMCEN
 40
0.09
  9
$DIMTSZ
 40
0.0
  9
$DIMTOL
 70
         0
  9
$DIMLIM
 70
         0
  9
$DIMTIH
 70
         1
  9
$DIMTOH
 70
         1
  9
$DIMSE1
 70
         0
  9
$DIMSE2
 70
         0
  9
$DIMTAD
 70
         0
  9
$DIMZIN
 70
         0
  9
$DIMBLK
  1

  9
$DIMASO
 70
         1
  9
$DIMSHO
 70
         1
  9
$DIMPOST
  1

  9
$DIMAPOST
  1

  9
$DIMALT
 70
         0
  9
$DIMALTD
 70
         2
  9
$DIMALTF
 40
25.4
  9
$DIMLFAC
 40
1.0
  9
$DIMTOFL
 70
         0
  9
$DIMTVP
 40
0.0
  9
$DIMTIX
 70
         0
  9
$DIMSOXD
 70
         0
  9
$DIMSAH
 70
         0
  9
$DIMBLK1
  1

  9
$DIMBLK2
  1

  9
$DIMSTYLE
  2
STANDARD
  9
$DIMCLRD
 70
         0
  9
$DIMCLRE
 70
         0
  9
$DIMCLRT
 70
         0
  9
$DIMTFAC
 40
1.0
  9
$DIMGAP
 40
0.09
  9
$DIMJUST
 70
         0
  9
$DIMSD1
 70
         0
  9
$DIMSD2
 70
         0
  9
$DIMTOLJ
 70
         1
  9
$DIMTZIN
 70
         0
  9
$DIMALTZ
 70
         0
  9
$DIMALTTZ
 70
         0
  9
$DIMFIT
 70
         3
  9
$DIMUPT
 70
         0
  9
$DIMUNIT
 70
         2
  9
$DIMDEC
 70
         4
  9
$DIMTDEC
 70
         4
  9
$DIMALTU
 70
         2
  9
$DIMALTTD
 70
         2
  9
$DIMTXSTY
  7
STANDARD
  9
$DIMAUNIT
 70
         0
  9
$LUNITS
 70
         2
  9
$LUPREC
 70
         4
  9
$SKETCHINC
 40
0.1
  9
$FILLETRAD
 40
0.0
  9
$AUNITS
 70
         0
  9
$AUPREC
 70
         0
  9
$MENU
  1
acad
  9
$ELEVATION
 40
0.0
  9
$PELEVATION
 40
0.0
  9
$THICKNESS
 40
0.0
  9
$LIMCHECK
 70
         0
  9
$BLIPMODE
 70
         1
  9
$CHAMFERA
 40
0.0
  9
$CHAMFERB
 40
0.0
  9
$CHAMFERC
 40
0.0
  9
$CHAMFERD
 40
0.0
  9
$SKPOLY
 70
         0
  9
$TDCREATE
 40
20180308.120347
  9
$TDUPDATE
 40
0.0
  9
$TDINDWG
 40
0.0
  9
$TDUSRTIMER
 40
0.0
  9
$USRTIMER
 70
         1
  9
$ANGBASE
 50
0.0
  9
$ANGDIR
 70
         0
  9
$PDMODE
 70
         0
  9
$PDSIZE
 40
0.0
  9
$PLINEWID
 40
0.0
  9
$COORDS
 70
         0
  9
$SPLFRAME
 70
         0
  9
$SPLINETYPE
 70
         6
  9
$SPLINESEGS
 70
         8
  9
$ATTDIA
 70
         0
  9
$ATTREQ
 70
         1
  9
$HANDLING
 70
         1
  9
$HANDSEED
  5
2F2
  9
$SURFTAB1
 70
         6
  9
$SURFTAB2
 70
         6
  9
$SURFTYPE
 70
         6
  9
$SURFU
 70
         6
  9
$SURFV
 70
         6
  9
$UCSNAME
  2

  9
$UCSORG
 10
0.0
 20
0.0
 30
0.0
  9
$UCSXDIR
 10
1.0
 20
0.0
 30
0.0
  9
$UCSYDIR
 10
0.0
 20
1.0
 30
0.0
  9
$PUCSNAME
  2

  9
$PUCSORG
 10
0.0
 20
0.0
 30
0.0
  9
$PUCSXDIR
 10
1.0
 20
0.0
 30
0.0
  9
$PUCSYDIR
 10
0.0
 20
1.0
 30
0.0
  9
$USERI1
 70
         -3
  9
$USERI2
 70
         0
  9
$USERI3
 70
         0
  9
$USERI4
 70
         0
  9
$USERI5
 70
         0
  9
$USERR1
 40
0.0
  9
$USERR2
 40
0.0
  9
$USERR3
 40
0.0
  9
$USERR4
 40
0.0
  9
$USERR5
 40
0.0
  9
$WORLDVIEW
 70
         1
  9
$SHADEDGE
 70
         3
  9
$SHADEDIF
 70
        70
  9
$TILEMODE
 70
         1
  9
$MAXACTVP
 70
         16
  9
$PINSBASE
 10
0.0
 20
0.0
 30
0.0
  9
$PLIMCHECK
 70
         0
  9
$PEXTMIN
 10
100000000000000000000.0
 20
100000000000000000000.0
 30
100000000000000000000.0
  9
$PEXTMAX
 10
-100000000000000000000.0
 20
-100000000000000000000.0
 30
-100000000000000000000.0
  9
$PLIMMIN
 10
0.0
 20
0.0
  9
$PLIMMAX
 10
12.0
 20
9.0
  9
$UNITMODE
 70
         0
  9
$VISRETAIN
 70
         0
  9
$PLINEGEN
 70
         1
  9
$PSLTSCALE
 70
         0
  9
$TREEDEPTH
 70
      3020
  9
$PICKSTYLE
 70
         1
  9
$CMLSTYLE
  2
STANDARD
  9
$CMLJUST
 70
         0
  9
$CMLSCALE
 40
1.0
  9
$PROXYGRAPHICS
 70
         0
  9
$MEASUREMENT
 70
         0
  0
ENDSEC
  0
SECTION
  2
CLASSES
  0
CLASS
  1
LWPOLYLINE
  2
AcDbPolyline
  3
"AutoCAD"
 90
        0
280
         0
281
         1
  0
CLASS
  1
IMAGE
  2
AcDbRasterImage
  3
ISM
 90
      127
280
         0
281
         1
  0
CLASS
  1
OLE2FRAME
  2
AcDbOle2Frame
  3
""
 90
        0
280
         0
281
         1
  0
CLASS
  1
HATCH
  2
AcDbHatch
  3
"ACAD_SEDONA"
 90
        0
280
         0
281
         1
  0
CLASS
  1
DICTIONARYVAR
  2
AcDbDictionaryVar
  3
"AutoCAD"
 90
        0
280
         0
281
         0
  0
CLASS
  1
RASTERVARIABLES
  2
AcDbRasterVariables
  3
ISM
 90
        0
280
         0
281
         0
  0
CLASS
  1
IMAGEDEF
  2
AcDbRasterImageDef
  3
ISM
 90
        0
280
         0
281
         0
  0
CLASS
  1
IMAGEDEF_REACTOR
  2
AcDbRasterImageDefReactor
  3
ISM
 90
        1
280
         0
281
         0
  0
CLASS
  1
IDBUFFER
  2
AcDbIdBuffer
  3
"Acad"
 90
        0
280
         0
281
         0
  0
CLASS
  1
SPATIAL_FILTER
  2
AcDbSpatialFilter
  3
"Acad"
 90
        0
280
         0
281
         0
  0
CLASS
  1
XRECORD
  2
AcDbXrecord
  3
"<Built In>"
 90
        0
280
         0
281
         0
  0
CLASS
  1
SORTENTSTABLE
  2
AcDbSortentsTable
  3
"AutoCAD"
 90
        0
280
         0
281
         0
  0
CLASS
  1
LAYER_INDEX
  2
AcDbLayerIndex
  3
"Acad"
 90
        0
280
         0
281
         0
  0
CLASS
  1
SPATIAL_INDEX
  2
AcDbSpatialIndex
  3
"Acad"
 90
        0
280
         0
281
         0
  0
CLASS
  1
OBJECT_PTR
  2
CAseDLPNTableRecord
  3
"ASE-LPNTableRecord"
 90
        1
280
         0
281
         0
  0
CLASS
  1
LAYOUT
  2
AcDbLayout
  3
"AutoCAD 2000"
 90
        0
280
         0
281
         0
  0
CLASS
  1
PLOTSETTINGS
  2
AcDbPlotSettings
  3
"AutoCAD 2000"
 90
        0
280
         0
281
         0
  0
CLASS
  1
ACDBDICTIONARYWDFLT
  2
AcDbDictionaryWithDefault
  3
"AutoCAD 2000"
 90
        0
280
         0
281
         0
  0
CLASS
  1
ACDBPLACEHOLDER
  2
AcDbPlaceHolder
  3
"AutoCAD 2000"
 90
        0
280
         0
281
         0
  0
CLASS
  1
VBA_PROJECT
  2
AcDbVbaProject
  3
"acadvba"
 90
        0
280
         0
281
         0
  0
CLASS
  1
WIPEOUT
  2
AcDbWipeout
  3
WipeOut|AutoCAD Express Tool|expresstools@autodesk.com
 90
      127
280
         0
281
         1
  0
CLASS
  1
WIPEOUTVARIABLES
  2
AcDbWipeoutVariables
  3
WipeOut|AutoCAD Express Tool|expresstools@autodesk.com
 90
        0
280
         0
281
         0
  0
CLASS
  1
RTEXT
  2
RText
  3
RText|AutoCAD Express Tool|expresstools@autodesk.com
 90
        0
280
         0
281
         1
  0
CLASS
  1
ARCALIGNEDTEXT
  2
AcDbArcAlignedText
  3
ATEXT|AutoCAD Express Tool|expresstools@autodesk.com
 90
        0
280
         0
281
         1
  0
ENDSEC
  0
SECTION
  2
TABLES
  0
TABLE
  2
VPORT
  5
7
100
AcDbSymbolTable
70
    1
  0
VPORT
  5
13
100
AcDbSymbolTableRecord
100
AcDbViewportTableRecord
  2
*ACTIVE
 70
         0
 10
0.0
 20
0.0
 11
1.0
 21
1.0
 12
1.0
 22
1.0
 13
0.0
 23
0.0
 14
1.0
 24
1.0
 15
0.0
 25
0.0
 16
0.0
 26
0.0
 36
1.0
 17
0.0
 27
0.0
 37
0.0
  42
0.0
  43
0.0
  44
0.0
  50
0.0
  51
0.0
 71
    0
 72
    100
 73
    1
 74
    1
 75
    0
 76
    0
 77
    0
 78
    0
  0
ENDTAB
  0
TABLE
  2
LTYPE
  5
4
100
AcDbSymbolTable
70
    3
  0
LTYPE
  5
10
100
AcDbSymbolTableRecord
100
AcDbLinetypeTableRecord
  2
BYBLOCK
 70
         64
  3

 72
       65
 73
       0
  40
0.0
  0
LTYPE
  5
11
100
AcDbSymbolTableRecord
100
AcDbLinetypeTableRecord
  2
BYLAYER
 70
         64
  3

 72
       65
 73
       0
  40
0.0
  0
LTYPE
  5
12
100
AcDbSymbolTableRecord
100
AcDbLinetypeTableRecord
  2
CONTINUOUS
 70
         64
  3
Solid Line
 72
       65
 73
       0
  40
0.0
  0
ENDTAB
  0
TABLE
  2
LAYER
  5
2
100
AcDbSymbolTable
 70
         10
  0
LAYER
  5
2E4
100
AcDbSymbolTableRecord
100
AcDbLayerTableRecord
  2
0
 70
         0
 62
         7
  6
CONTINUOUS
  0
LAYER
  5
2E5
100
AcDbSymbolTableRecord
100
AcDbLayerTableRecord
  2
ASSEMBLY_OUTLINES_BTM
 70
         0
 62
         191
  6
CONTINUOUS
  0
LAYER
  5
2E6
100
AcDbSymbolTableRecord
100
AcDbLayerTableRecord
  2
ASSEMBLY_REF_DES_BTM
 70
         0
 62
         191
  6
CONTINUOUS
  0
LAYER
  5
2E7
100
AcDbSymbolTableRecord
100
AcDbLayerTableRecord
  2
BOARD_ORIGIN
 70
         0
 62
         255
  6
CONTINUOUS
  0
LAYER
  5
2E8
100
AcDbSymbolTableRecord
100
AcDbLayerTableRecord
  2
BOARD_OUTLINE
 70
         0
 62
         10
  6
CONTINUOUS
  0
LAYER
  5
2E9
100
AcDbSymbolTableRecord
100
AcDbLayerTableRecord
  2
MOUNTING_HOLE_PADS_LAYER_BOTTOM
 70
         0
 62
         42
  6
CONTINUOUS
  0
LAYER
  5
2EA
100
AcDbSymbolTableRecord
100
AcDbLayerTableRecord
  2
MOUNTING_HOLES_LAYER_BOTTOM
 70
         0
 62
         42
  6
CONTINUOUS
  0
LAYER
  5
2EB
100
AcDbSymbolTableRecord
100
AcDbLayerTableRecord
  2
PART_HOLES_LAYER_BOTTOM
 70
         0
 62
         30
  6
CONTINUOUS
  0
LAYER
  5
2EC
100
AcDbSymbolTableRecord
100
AcDbLayerTableRecord
  2
PART_PADS_LAYER_BOTTOM
 70
         0
 62
         42
  6
CONTINUOUS
  0
LAYER
  5
2ED
100
AcDbSymbolTableRecord
100
AcDbLayerTableRecord
  2
PART_PADS_SMD_BTM
 70
         0
 62
         42
  6
CONTINUOUS
  0
ENDTAB
  0
TABLE
  2
STYLE
  5
3
100
AcDbSymbolTable
 70
         4
  0
STYLE
  5
2EE
100
AcDbSymbolTableRecord
100
AcDbTextStyleTableRecord
  2
STANDARD
 70
         0
 40
0.0
 41
1.0
 50
0.0
 71
         0
 42
0.0
  3
txt
  4

  0
STYLE
  5
2EF
100
AcDbSymbolTableRecord
100
AcDbTextStyleTableRecord
  2
VERIBEST_GERBER_0
 70
         0
 40
0.0
 41
1.0
 50
0.0
 71
         0
 42
0.0
  3
VBest0.ttf
  4

  0
STYLE
  5
2F0
100
AcDbSymbolTableRecord
100
AcDbTextStyleTableRecord
  2
ARIAL
 70
         0
 40
0.0
 41
1.0
 50
0.0
 71
         0
 42
0.0
  3
arial.ttf
  4

  0
STYLE
  5
2F1
100
AcDbSymbolTableRecord
100
AcDbTextStyleTableRecord
  2
VERIBEST_GERBER_1
 70
         0
 40
0.0
 41
1.0
 50
0.0
 71
         0
 42
0.0
  3
VBest1.ttf
  4

  0
ENDTAB
  0
TABLE
  2
VIEW
  5
5
100
AcDbSymbolTable
 70
         0
  0
ENDTAB
  0
TABLE
  2
UCS
  5
6
100
AcDbSymbolTable
 70
         0
  0
ENDTAB
  0
TABLE
  2
APPID
  5
8
100
AcDbSymbolTable
 70
         1
  0
APPID
  5
14
100
AcDbSymbolTableRecord
100
AcDbRegAppTableRecord
  2
ACAD
 70
         0
  0
ENDTAB
  0
TABLE
  2
DIMSTYLE
  5
9
100
AcDbSymbolTable
 70
         1
  0
DIMSTYLE
105
15
100
AcDbSymbolTableRecord
100
AcDbDimStyleTableRecord
  2
STANDARD
 70
         0
  3

  4

  5

  6

 7

 40
1.0
 41
0.18
 42
0.0625
 43
0.38
 44
0.18
 45
0.0
 46
0.0
 47
0.0
 48
0.0
 71
         0
 72
         0
 73
         1
 74
         1
 75
         0
 76
         0
 77
         0
 78
         0
140
0.18
141
0.09
142
0.0
143
25.4
144
1.0
145
0.0
146
1.0
147
0.09
170
         0
171
         2
172
         0
173
         0
174
         0
175
         0
176
         0
177
         0
178
         0
270
         2
271
         4
272
         4
273
         2
274
         2
275
         0
280
         0
281
         0
282
         0
283
         1
284
         0
285
         0
286
         0
287
         3
288
         0
340
17
  0
ENDTAB
  0
TABLE
  2
BLOCK_RECORD
  5
1
100
AcDbSymbolTable
 70
         0
  0
BLOCK_RECORD
  5
A
100
AcDbSymbolTableRecord
100
AcDbBlockTableRecord
  2
*MODEL_SPACE
  0
BLOCK_RECORD
  5
B
100
AcDbSymbolTableRecord
100
AcDbBlockTableRecord
  2
*PAPER_SPACE
  0
ENDTAB
  0
ENDSEC
  0
SECTION
  2
BLOCKS
  0
BLOCK
  5
C
100
AcDbEntity
  8
0
100
AcDbBlockBegin
  2
*MODEL_SPACE
 70
         0
 10
0.0
 20
0.0
 30
0.0
  3
*MODEL_SPACE
  1

  0
ENDBLK
  5
D
100
AcDbEntity
  8
0
100
AcDbBlockEnd
  0
BLOCK
  5
E
100
AcDbEntity
 67
        1
  8
0
100
AcDbBlockBegin
  2
*PAPER_SPACE
 70
         0
 10
0.0
 20
0.0
 30
0.0
  3
*PAPER_SPACE
  1

  0
ENDBLK
  5
F
100
AcDbEntity
 67
        1
  8
0
100
AcDbBlockEnd
  0
ENDSEC
  0
SECTION
  2
ENTITIES
  0
LWPOLYLINE
  5
1B
100
AcDbEntity
  8
ASSEMBLY_OUTLINES_BTM
100
AcDbPolyline
 90
        4
 70
         1
 43
0.03
 10
50.978
 20
2.8648
 10
50.978
 20
5.3648
 10
54.178
 20
5.3648
 10
54.178
 20
2.8648
  0
TEXT
  5
1C
100
AcDbEntity
  8
ASSEMBLY_OUTLINES_BTM
100
AcDbText
 10
51.9575
 20
4.4048
 30
0.0
 40
0.900000
 41
1.000000
  1
1
  7
VERIBEST_GERBER_0
 71
2
 72
 1
 11
51.548
 21
4.8548
 31
0.0
100
AcDbText
 73
 2
  0
LWPOLYLINE
  5
1D
100
AcDbEntity
  8
ASSEMBLY_OUTLINES_BTM
100
AcDbPolyline
 90
        4
 70
         1
 43
0.0254
 10
14.3764
 20
38.3032
 10
14.3764
 20
41.5036
 10
16.002
 20
41.5036
 10
16.002
 20
38.3032
  0
LWPOLYLINE
  5
1E
100
AcDbEntity
  8
ASSEMBLY_OUTLINES_BTM
100
AcDbPolyline
 90
        4
 70
         1
 43
0.1
 10
8.955
 20
34.73
 10
8.955
 20
38.93
 10
13.905
 20
38.93
 10
13.905
 20
34.73
  0
TEXT
  5
1F
100
AcDbEntity
  8
ASSEMBLY_OUTLINES_BTM
100
AcDbText
 10
12.37285
 20
38.138
 30
0.0
 40
0.900000
 41
1.000000
  1
-
  7
VERIBEST_GERBER_0
 72
 1
 11
12.781
 21
38.588
 31
0.0
100
AcDbText
 73
 2
  0
TEXT
  5
20
100
AcDbEntity
  8
ASSEMBLY_OUTLINES_BTM
100
AcDbText
 10
9.84395
 20
37.965
 30
0.0
 40
0.900000
 41
1.000000
  1
+
  7
VERIBEST_GERBER_0
 72
 1
 11
10.262
 21
38.415
 31
0.0
100
AcDbText
 73
 2
  0
TEXT
  5
21
100
AcDbEntity
  8
ASSEMBLY_OUTLINES_BTM
100
AcDbText
 10
12.27565
 20
34.968
 30
0.0
 40
0.900000
 41
1.000000
  1
~
  7
VERIBEST_GERBER_0
 72
 1
 11
12.7
 21
35.418
 31
0.0
100
AcDbText
 73
 2
  0
TEXT
  5
22
100
AcDbEntity
  8
ASSEMBLY_OUTLINES_BTM
100
AcDbText
 10
9.65365
 20
34.917
 30
0.0
 40
0.900000
 41
1.000000
  1
~
  7
VERIBEST_GERBER_0
 72
 1
 11
10.078
 21
35.367
 31
0.0
100
AcDbText
 73
 2
  0
TEXT
  5
23
100
AcDbEntity
  8
ASSEMBLY_OUTLINES_BTM
100
AcDbText
 10
9.69375
 20
40.739
 30
0.0
 40
0.900000
 41
1.000000
  1
2
  7
VERIBEST_GERBER_0
 72
 1
 11
10.119
 21
41.189
 31
0.0
100
AcDbText
 73
 2
  0
TEXT
  5
24
100
AcDbEntity
  8
ASSEMBLY_OUTLINES_BTM
100
AcDbText
 10
12.3105
 20
40.708
 30
0.0
 40
0.900000
 41
1.000000
  1
1
  7
VERIBEST_GERBER_0
 72
 1
 11
12.72
 21
41.158
 31
0.0
100
AcDbText
 73
 2
  0
TEXT
  5
25
100
AcDbEntity
  8
ASSEMBLY_OUTLINES_BTM
100
AcDbText
 10
9.81575
 20
31.981
 30
0.0
 40
0.900000
 41
1.000000
  1
3
  7
VERIBEST_GERBER_0
 72
 1
 11
10.241
 21
32.431
 31
0.0
100
AcDbText
 73
 2
  0
TEXT
  5
26
100
AcDbEntity
  8
ASSEMBLY_OUTLINES_BTM
100
AcDbText
 10
12.37575
 20
32.112
 30
0.0
 40
0.900000
 41
1.000000
  1
4
  7
VERIBEST_GERBER_0
 72
 1
 11
12.801
 21
32.562
 31
0.0
100
AcDbText
 73
 2
  0
LWPOLYLINE
  5
27
100
AcDbEntity
  8
ASSEMBLY_OUTLINES_BTM
100
AcDbPolyline
 90
        4
 70
         1
 43
0.1
 10
14.546
 20
4.398
 10
14.546
 20
8.598
 10
23.046
 20
8.598
 10
23.046
 20
4.398
  0
LWPOLYLINE
  5
28
100
AcDbEntity
  8
ASSEMBLY_OUTLINES_BTM
100
AcDbPolyline
 90
        4
 70
         1
 43
0.1
 10
16.796
 20
4.398
 10
16.796
 20
8.598
 10
20.796
 20
8.598
 10
20.796
 20
4.398
  0
LWPOLYLINE
  5
29
100
AcDbEntity
  8
ASSEMBLY_OUTLINES_BTM
100
AcDbPolyline
 90
        3
 70
         1
 43
0.0
 10
19.946
 20
10.348
 10
20.446
 20
11.098
 10
19.446
 20
11.098
  0
HATCH
  5
2A
100
AcDbEntity
  8
ASSEMBLY_OUTLINES_BTM
100
AcDbHatch
 10
0.0
 20
0.0
 30
0.0
 210
0.0
 220
0.0
 230
1.0
  2
SOLID
 70
         1
 71
        1
 91
        1
  92
     2
 72
     0
 73
     1
  93
     3
 10
19.946
 20
10.348
 10
20.446
 20
11.098
 10
19.446
 20
11.098
  97
     1
  330
    41
 75
     0
 76
     1
  98
     1
 10
0.0
 20
0.0
  0
LWPOLYLINE
  5
2B
100
AcDbEntity
  8
ASSEMBLY_OUTLINES_BTM
100
AcDbPolyline
 90
        8
 70
         1
 43
0.1
 10
39.2668
 20
48.6656
 10
39.2668
 20
35.8656
 42
0.414214
 10
39.7668
 20
35.3656
 10
51.2668
 20
35.3656
 42
0.414214
 10
51.7668
 20
35.8656
 10
51.7668
 20
48.6656
 42
0.414214
 10
51.2668
 20
49.1656
 10
39.7668
 20
49.1656
 42
0.414214
  0
LWPOLYLINE
  5
2C
100
AcDbEntity
  8
ASSEMBLY_OUTLINES_BTM
100
AcDbPolyline
 90
        2
 70
         0
 43
0.1
 10
97.48
 20
31.728622
 10
97.48
 20
31.725
  0
LWPOLYLINE
  5
2D
100
AcDbEntity
  8
ASSEMBLY_OUTLINES_BTM
100
AcDbPolyline
 90
        2
 70
         0
 43
0.1
 10
93.5
 20
10.797
 10
93.476
 20
10.789
  0
LWPOLYLINE
  5
2E
100
AcDbEntity
  8
ASSEMBLY_OUTLINES_BTM
100
AcDbPolyline
 90
        2
 70
         0
 43
0.1
 10
92.276
 20
10.789
 10
92.28
 20
10.8
  0
LWPOLYLINE
  5
2F
100
AcDbEntity
  8
ASSEMBLY_OUTLINES_BTM
100
AcDbPolyline
 90
        2
 70
         0
 43
0.1
 10
92.28
 20
32.8
 10
92.3
 20
32.8
  0
LWPOLYLINE
  5
30
100
AcDbEntity
  8
ASSEMBLY_OUTLINES_BTM
100
AcDbPolyline
 90
        19
 70
         0
 43
0.1
 10
93.5
 20
10.797
 10
93.5
 20
11.377623
 42
-0.414434
 10
94.000377
 20
11.877623
 10
97.48
 20
11.875
 10
97.48
 20
18.57
 10
94.58
 20
18.57
 42
-1.000000
 10
94.58
 20
19.77
 10
97.48
 20
19.77
 10
97.48
 20
31.725
 10
97.48
 20
31.728622
 10
94.000377
 20
31.725999
 42
-0.414434
 10
93.5
 20
32.225999
 10
93.5
 20
32.806622
 10
93.5
 20
32.8
 10
92.3
 20
32.8
 10
92.28
 20
32.8
 10
92.28
 20
10.8
 10
92.276
 20
10.789
 10
93.476
 20
10.789
  0
LWPOLYLINE
  5
31
100
AcDbEntity
  8
ASSEMBLY_OUTLINES_BTM
100
AcDbPolyline
 90
        4
 70
         1
 43
0.1016
 10
9.852914
 20
42.53103
 10
9.852914
 20
47.13097
 10
12.752831
 20
47.13097
 10
12.752831
 20
42.53103
  0
LWPOLYLINE
  5
32
100
AcDbEntity
  8
ASSEMBLY_OUTLINES_BTM
100
AcDbPolyline
 90
        2
 70
         0
 43
0.1016
 10
12.203
 20
45.281
 10
10.503
 20
45.281
  0
LWPOLYLINE
  5
33
100
AcDbEntity
  8
ASSEMBLY_OUTLINES_BTM
100
AcDbPolyline
 90
        3
 70
         1
 43
0.1016
 10
11.303
 20
45.181
 10
12.103
 20
44.281
 10
10.303
 20
44.281
  0
LWPOLYLINE
  5
34
100
AcDbEntity
  8
ASSEMBLY_OUTLINES_BTM
100
AcDbPolyline
 90
        2
 70
         1
 43
0.1
 10
3.201
 20
24.11
 42
-1.000000
 10
8.901
 20
24.11
 42
-1.000000
  0
LWPOLYLINE
  5
35
100
AcDbEntity
  8
ASSEMBLY_OUTLINES_BTM
100
AcDbPolyline
 90
        4
 70
         1
 43
0.1
 10
82.42
 20
36.588
 10
82.42
 20
58.488
 10
88.75
 20
58.488
 10
88.75
 20
36.588
  0
LWPOLYLINE
  5
36
100
AcDbEntity
  8
ASSEMBLY_OUTLINES_BTM
100
AcDbPolyline
 90
        3
 70
         1
 43
0.0
 10
91.147899
 20
37.682725
 10
90.547899
 20
38.282725
 10
91.147899
 20
38.882725
  0
HATCH
  5
37
100
AcDbEntity
  8
ASSEMBLY_OUTLINES_BTM
100
AcDbHatch
 10
0.0
 20
0.0
 30
0.0
 210
0.0
 220
0.0
 230
1.0
  2
SOLID
 70
         1
 71
        1
 91
        1
  92
     2
 72
     0
 73
     1
  93
     3
 10
91.147899
 20
37.682725
 10
90.547899
 20
38.282725
 10
91.147899
 20
38.882725
  97
     1
  330
    54
 75
     0
 76
     1
  98
     1
 10
0.0
 20
0.0
  0
CIRCLE
  5
38
100
AcDbEntity
  8
ASSEMBLY_OUTLINES_BTM
100
AcDbCircle
 10
56.0
 20
47.538
 30
0.0
 40
2.5
  0
LWPOLYLINE
  5
39
100
AcDbEntity
  8
ASSEMBLY_OUTLINES_BTM
100
AcDbPolyline
 90
        2
 70
         0
 43
0.203
 10
84.25
 20
58.046
 10
84.25
 20
61.348
  0
LWPOLYLINE
  5
3A
100
AcDbEntity
  8
ASSEMBLY_OUTLINES_BTM
100
AcDbPolyline
 90
        2
 70
         0
 43
0.203
 10
56.0
 20
48.046
 10
56.0
 20
61.348
  0
LWPOLYLINE
  5
3B
100
AcDbEntity
  8
ASSEMBLY_OUTLINES_BTM
100
AcDbPolyline
 90
        2
 70
         0
 43
0.203
 10
83.6785
 20
60.84
 10
74.33168
 20
60.84
  0
LWPOLYLINE
  5
3C
100
AcDbEntity
  8
ASSEMBLY_OUTLINES_BTM
100
AcDbPolyline
 90
        2
 70
         0
 43
0.203
 10
65.91832
 20
60.84
 10
56.5715
 20
60.84
  0
LWPOLYLINE
  5
3D
100
AcDbEntity
  8
ASSEMBLY_OUTLINES_BTM
100
AcDbPolyline
 90
        3
 70
         1
 43
0.0
 10
84.25
 20
60.84
 10
83.107
 20
61.411499
 10
83.107001
 20
60.2685
  0
HATCH
  5
3E
100
AcDbEntity
  8
ASSEMBLY_OUTLINES_BTM
100
AcDbHatch
 10
0.0
 20
0.0
 30
0.0
 210
0.0
 220
0.0
 230
1.0
  2
SOLID
 70
         1
 71
        1
 91
        1
  92
     2
 72
     0
 73
     1
  93
     3
 10
84.25
 20
60.84
 10
83.107
 20
61.411499
 10
83.107001
 20
60.2685
  97
     1
  330
    61
 75
     0
 76
     1
  98
     1
 10
0.0
 20
0.0
  0
LWPOLYLINE
  5
3F
100
AcDbEntity
  8
ASSEMBLY_OUTLINES_BTM
100
AcDbPolyline
 90
        3
 70
         1
 43
0.0
 10
56.0
 20
60.84
 10
57.143
 20
60.2685
 10
57.143
 20
61.4115
  0
HATCH
  5
40
100
AcDbEntity
  8
ASSEMBLY_OUTLINES_BTM
100
AcDbHatch
 10
0.0
 20
0.0
 30
0.0
 210
0.0
 220
0.0
 230
1.0
  2
SOLID
 70
         1
 71
        1
 91
        1
  92
     2
 72
     0
 73
     1
  93
     3
 10
56.0
 20
60.84
 10
57.143
 20
60.2685
 10
57.143
 20
61.4115
  97
     1
  330
    63
 75
     0
 76
     1
  98
     1
 10
0.0
 20
0.0
  0
CIRCLE
  5
41
100
AcDbEntity
  8
ASSEMBLY_OUTLINES_BTM
100
AcDbCircle
 10
44.0
 20
47.538
 30
0.0
 40
2.5
  0
LWPOLYLINE
  5
42
100
AcDbEntity
  8
ASSEMBLY_OUTLINES_BTM
100
AcDbPolyline
 90
        2
 70
         0
 43
0.203
 10
84.25
 20
58.046
 10
84.25
 20
63.634
  0
LWPOLYLINE
  5
43
100
AcDbEntity
  8
ASSEMBLY_OUTLINES_BTM
100
AcDbPolyline
 90
        2
 70
         0
 43
0.203
 10
44.0
 20
48.046
 10
44.0
 20
63.634
  0
LWPOLYLINE
  5
44
100
AcDbEntity
  8
ASSEMBLY_OUTLINES_BTM
100
AcDbPolyline
 90
        2
 70
         0
 43
0.203
 10
83.6785
 20
63.126
 10
68.33168
 20
63.126
  0
LWPOLYLINE
  5
45
100
AcDbEntity
  8
ASSEMBLY_OUTLINES_BTM
100
AcDbPolyline
 90
        2
 70
         0
 43
0.203
 10
59.91832
 20
63.126
 10
44.5715
 20
63.126
  0
LWPOLYLINE
  5
46
100
AcDbEntity
  8
ASSEMBLY_OUTLINES_BTM
100
AcDbPolyline
 90
        3
 70
         1
 43
0.0
 10
84.25
 20
63.126
 10
83.107
 20
63.697499
 10
83.107001
 20
62.5545
  0
HATCH
  5
47
100
AcDbEntity
  8
ASSEMBLY_OUTLINES_BTM
100
AcDbHatch
 10
0.0
 20
0.0
 30
0.0
 210
0.0
 220
0.0
 230
1.0
  2
SOLID
 70
         1
 71
        1
 91
        1
  92
     2
 72
     0
 73
     1
  93
     3
 10
84.25
 20
63.126
 10
83.107
 20
63.697499
 10
83.107001
 20
62.5545
  97
     1
  330
    70
 75
     0
 76
     1
  98
     1
 10
0.0
 20
0.0
  0
LWPOLYLINE
  5
48
100
AcDbEntity
  8
ASSEMBLY_OUTLINES_BTM
100
AcDbPolyline
 90
        3
 70
         1
 43
0.0
 10
44.0
 20
63.126
 10
45.143
 20
62.5545
 10
45.143
 20
63.6975
  0
HATCH
  5
49
100
AcDbEntity
  8
ASSEMBLY_OUTLINES_BTM
100
AcDbHatch
 10
0.0
 20
0.0
 30
0.0
 210
0.0
 220
0.0
 230
1.0
  2
SOLID
 70
         1
 71
        1
 91
        1
  92
     2
 72
     0
 73
     1
  93
     3
 10
44.0
 20
63.126
 10
45.143
 20
62.5545
 10
45.143
 20
63.6975
  97
     1
  330
    72
 75
     0
 76
     1
  98
     1
 10
0.0
 20
0.0
  0
CIRCLE
  5
4A
100
AcDbEntity
  8
ASSEMBLY_OUTLINES_BTM
100
AcDbCircle
 10
26.0
 20
47.538
 30
0.0
 40
2.5
  0
LWPOLYLINE
  5
4B
100
AcDbEntity
  8
ASSEMBLY_OUTLINES_BTM
100
AcDbPolyline
 90
        2
 70
         0
 43
0.203
 10
84.25
 20
58.046
 10
84.25
 20
65.92
  0
LWPOLYLINE
  5
4C
100
AcDbEntity
  8
ASSEMBLY_OUTLINES_BTM
100
AcDbPolyline
 90
        2
 70
         0
 43
0.203
 10
26.0
 20
48.046
 10
26.0
 20
65.92
  0
LWPOLYLINE
  5
4D
100
AcDbEntity
  8
ASSEMBLY_OUTLINES_BTM
100
AcDbPolyline
 90
        2
 70
         0
 43
0.203
 10
83.6785
 20
65.412
 10
59.33168
 20
65.412
  0
LWPOLYLINE
  5
4E
100
AcDbEntity
  8
ASSEMBLY_OUTLINES_BTM
100
AcDbPolyline
 90
        2
 70
         0
 43
0.203
 10
50.91832
 20
65.412
 10
26.5715
 20
65.412
  0
LWPOLYLINE
  5
4F
100
AcDbEntity
  8
ASSEMBLY_OUTLINES_BTM
100
AcDbPolyline
 90
        3
 70
         1
 43
0.0
 10
84.25
 20
65.412
 10
83.107
 20
65.983499
 10
83.107001
 20
64.8405
  0
HATCH
  5
50
100
AcDbEntity
  8
ASSEMBLY_OUTLINES_BTM
100
AcDbHatch
 10
0.0
 20
0.0
 30
0.0
 210
0.0
 220
0.0
 230
1.0
  2
SOLID
 70
         1
 71
        1
 91
        1
  92
     2
 72
     0
 73
     1
  93
     3
 10
84.25
 20
65.412
 10
83.107
 20
65.983499
 10
83.107001
 20
64.8405
  97
     1
  330
    79
 75
     0
 76
     1
  98
     1
 10
0.0
 20
0.0
  0
LWPOLYLINE
  5
51
100
AcDbEntity
  8
ASSEMBLY_OUTLINES_BTM
100
AcDbPolyline
 90
        3
 70
         1
 43
0.0
 10
26.0
 20
65.412
 10
27.143
 20
64.8405
 10
27.143
 20
65.9835
  0
HATCH
  5
52
100
AcDbEntity
  8
ASSEMBLY_OUTLINES_BTM
100
AcDbHatch
 10
0.0
 20
0.0
 30
0.0
 210
0.0
 220
0.0
 230
1.0
  2
SOLID
 70
         1
 71
        1
 91
        1
  92
     2
 72
     0
 73
     1
  93
     3
 10
26.0
 20
65.412
 10
27.143
 20
64.8405
 10
27.143
 20
65.9835
  97
     1
  330
    81
 75
     0
 76
     1
  98
     1
 10
0.0
 20
0.0
  0
CIRCLE
  5
53
100
AcDbEntity
  8
ASSEMBLY_OUTLINES_BTM
100
AcDbCircle
 10
6.0
 20
47.538
 30
0.0
 40
2.5
  0
LWPOLYLINE
  5
54
100
AcDbEntity
  8
ASSEMBLY_OUTLINES_BTM
100
AcDbPolyline
 90
        2
 70
         0
 43
0.203
 10
84.25
 20
58.046
 10
84.25
 20
68.46
  0
LWPOLYLINE
  5
55
100
AcDbEntity
  8
ASSEMBLY_OUTLINES_BTM
100
AcDbPolyline
 90
        2
 70
         0
 43
0.203
 10
6.0
 20
48.046
 10
6.0
 20
68.46
  0
LWPOLYLINE
  5
56
100
AcDbEntity
  8
ASSEMBLY_OUTLINES_BTM
100
AcDbPolyline
 90
        2
 70
         0
 43
0.203
 10
83.6785
 20
67.952
 10
49.33168
 20
67.952
  0
LWPOLYLINE
  5
57
100
AcDbEntity
  8
ASSEMBLY_OUTLINES_BTM
100
AcDbPolyline
 90
        2
 70
         0
 43
0.203
 10
40.91832
 20
67.952
 10
6.5715
 20
67.952
  0
LWPOLYLINE
  5
58
100
AcDbEntity
  8
ASSEMBLY_OUTLINES_BTM
100
AcDbPolyline
 90
        3
 70
         1
 43
0.0
 10
84.25
 20
67.952
 10
83.107
 20
68.523499
 10
83.107001
 20
67.3805
  0
HATCH
  5
59
100
AcDbEntity
  8
ASSEMBLY_OUTLINES_BTM
100
AcDbHatch
 10
0.0
 20
0.0
 30
0.0
 210
0.0
 220
0.0
 230
1.0
  2
SOLID
 70
         1
 71
        1
 91
        1
  92
     2
 72
     0
 73
     1
  93
     3
 10
84.25
 20
67.952
 10
83.107
 20
68.523499
 10
83.107001
 20
67.3805
  97
     1
  330
    88
 75
     0
 76
     1
  98
     1
 10
0.0
 20
0.0
  0
LWPOLYLINE
  5
5A
100
AcDbEntity
  8
ASSEMBLY_OUTLINES_BTM
100
AcDbPolyline
 90
        3
 70
         1
 43
0.0
 10
6.0
 20
67.952
 10
7.143
 20
67.3805
 10
7.143
 20
68.5235
  0
HATCH
  5
5B
100
AcDbEntity
  8
ASSEMBLY_OUTLINES_BTM
100
AcDbHatch
 10
0.0
 20
0.0
 30
0.0
 210
0.0
 220
0.0
 230
1.0
  2
SOLID
 70
         1
 71
        1
 91
        1
  92
     2
 72
     0
 73
     1
  93
     3
 10
6.0
 20
67.952
 10
7.143
 20
67.3805
 10
7.143
 20
68.5235
  97
     1
  330
    90
 75
     0
 76
     1
  98
     1
 10
0.0
 20
0.0
  0
CIRCLE
  5
5C
100
AcDbEntity
  8
ASSEMBLY_OUTLINES_BTM
100
AcDbCircle
 10
-24.0
 20
47.538
 30
0.0
 40
2.5
  0
LWPOLYLINE
  5
5D
100
AcDbEntity
  8
ASSEMBLY_OUTLINES_BTM
100
AcDbPolyline
 90
        2
 70
         0
 43
0.203
 10
84.25
 20
58.046
 10
84.25
 20
70.238
  0
LWPOLYLINE
  5
5E
100
AcDbEntity
  8
ASSEMBLY_OUTLINES_BTM
100
AcDbPolyline
 90
        2
 70
         0
 43
0.203
 10
-24.0
 20
48.046
 10
-24.0
 20
70.238
  0
LWPOLYLINE
  5
5F
100
AcDbEntity
  8
ASSEMBLY_OUTLINES_BTM
100
AcDbPolyline
 90
        2
 70
         0
 43
0.203
 10
83.6785
 20
69.73
 10
34.861746
 20
69.73
  0
LWPOLYLINE
  5
60
100
AcDbEntity
  8
ASSEMBLY_OUTLINES_BTM
100
AcDbPolyline
 90
        2
 70
         0
 43
0.203
 10
25.388254
 20
69.73
 10
-23.4285
 20
69.73
  0
LWPOLYLINE
  5
61
100
AcDbEntity
  8
ASSEMBLY_OUTLINES_BTM
100
AcDbPolyline
 90
        3
 70
         1
 43
0.0
 10
84.25
 20
69.73
 10
83.107
 20
70.301499
 10
83.107001
 20
69.1585
  0
HATCH
  5
62
100
AcDbEntity
  8
ASSEMBLY_OUTLINES_BTM
100
AcDbHatch
 10
0.0
 20
0.0
 30
0.0
 210
0.0
 220
0.0
 230
1.0
  2
SOLID
 70
         1
 71
        1
 91
        1
  92
     2
 72
     0
 73
     1
  93
     3
 10
84.25
 20
69.73
 10
83.107
 20
70.301499
 10
83.107001
 20
69.1585
  97
     1
  330
    97
 75
     0
 76
     1
  98
     1
 10
0.0
 20
0.0
  0
LWPOLYLINE
  5
63
100
AcDbEntity
  8
ASSEMBLY_OUTLINES_BTM
100
AcDbPolyline
 90
        3
 70
         1
 43
0.0
 10
-24.0
 20
69.73
 10
-22.857
 20
69.1585
 10
-22.857
 20
70.3015
  0
HATCH
  5
64
100
AcDbEntity
  8
ASSEMBLY_OUTLINES_BTM
100
AcDbHatch
 10
0.0
 20
0.0
 30
0.0
 210
0.0
 220
0.0
 230
1.0
  2
SOLID
 70
         1
 71
        1
 91
        1
  92
     2
 72
     0
 73
     1
  93
     3
 10
-24.0
 20
69.73
 10
-22.857
 20
69.1585
 10
-22.857
 20
70.3015
  97
     1
  330
    99
 75
     0
 76
     1
  98
     1
 10
0.0
 20
0.0
  0
TEXT
  5
65
100
AcDbEntity
  8
ASSEMBLY_OUTLINES_BTM
100
AcDbText
 10
34.41252
 20
69.0696
 30
0.0
 40
1.270000
 41
1.000000
  1
108.25mm
  7
ARIAL
 71
2
 72
 1
 11
30.125
 21
69.73
 31
0.0
100
AcDbText
 73
 2
  0
TEXT
  5
66
100
AcDbEntity
  8
ASSEMBLY_OUTLINES_BTM
100
AcDbText
 10
48.907695
 20
67.2916
 30
0.0
 40
1.270000
 41
1.000000
  1
78.25mm
  7
ARIAL
 71
2
 72
 1
 11
45.125
 21
67.952
 31
0.0
100
AcDbText
 73
 2
  0
TEXT
  5
67
100
AcDbEntity
  8
ASSEMBLY_OUTLINES_BTM
100
AcDbText
 10
58.907695
 20
64.7516
 30
0.0
 40
1.270000
 41
1.000000
  1
58.25mm
  7
ARIAL
 71
2
 72
 1
 11
55.125
 21
65.412
 31
0.0
100
AcDbText
 73
 2
  0
TEXT
  5
68
100
AcDbEntity
  8
ASSEMBLY_OUTLINES_BTM
100
AcDbText
 10
67.907695
 20
62.4656
 30
0.0
 40
1.270000
 41
1.000000
  1
40.25mm
  7
ARIAL
 71
2
 72
 1
 11
64.125
 21
63.126
 31
0.0
100
AcDbText
 73
 2
  0
TEXT
  5
69
100
AcDbEntity
  8
ASSEMBLY_OUTLINES_BTM
100
AcDbText
 10
73.907695
 20
60.1796
 30
0.0
 40
1.270000
 41
1.000000
  1
28.25mm
  7
ARIAL
 71
2
 72
 1
 11
70.125
 21
60.84
 31
0.0
100
AcDbText
 73
 2
  0
LWPOLYLINE
  5
6A
100
AcDbEntity
  8
ASSEMBLY_OUTLINES_BTM
100
AcDbPolyline
 90
        4
 70
         1
 43
0.1
 10
54.428
 20
6.295
 10
54.428
 20
15.295
 10
63.428
 20
15.295
 10
63.428
 20
6.295
  0
LWPOLYLINE
  5
6B
100
AcDbEntity
  8
ASSEMBLY_OUTLINES_BTM
100
AcDbPolyline
 90
        3
 70
         1
 43
0.0
 10
54.418
 20
13.365
 10
56.358
 20
15.305
 10
54.418
 20
15.305
  0
HATCH
  5
6C
100
AcDbEntity
  8
ASSEMBLY_OUTLINES_BTM
100
AcDbHatch
 10
0.0
 20
0.0
 30
0.0
 210
0.0
 220
0.0
 230
1.0
  2
SOLID
 70
         1
 71
        1
 91
        1
  92
     2
 72
     0
 73
     1
  93
     3
 10
54.418
 20
13.365
 10
56.358
 20
15.305
 10
54.418
 20
15.305
  97
     1
  330
    107
 75
     0
 76
     1
  98
     1
 10
0.0
 20
0.0
  0
TEXT
  5
6D
100
AcDbEntity
  8
ASSEMBLY_OUTLINES_BTM
100
AcDbText
 10
61.983
 20
15.779525
 30
0.0
 40
0.890000
 41
1.000000
  1
16
  50
270.0
  7
VERIBEST_GERBER_0
 71
2
 72
 1
 11
62.428
 21
16.605
 31
0.0
100
AcDbText
 73
 2
  0
TEXT
  5
6E
100
AcDbEntity
  8
ASSEMBLY_OUTLINES_BTM
100
AcDbText
 10
63.943
 20
6.06395
 30
0.0
 40
0.890000
 41
1.000000
  1
32
  50
270.0
  7
VERIBEST_GERBER_0
 71
2
 72
 1
 11
64.388
 21
6.905
 31
0.0
100
AcDbText
 73
 2
  0
TEXT
  5
6F
100
AcDbEntity
  8
ASSEMBLY_OUTLINES_BTM
100
AcDbText
 10
52.963
 20
13.72395
 30
0.0
 40
0.890000
 41
1.000000
  1
64
  50
270.0
  7
VERIBEST_GERBER_0
 71
2
 72
 1
 11
53.408
 21
14.565
 31
0.0
100
AcDbText
 73
 2
  0
LWPOLYLINE
  5
70
100
AcDbEntity
  8
ASSEMBLY_OUTLINES_BTM
100
AcDbPolyline
 90
        2
 70
         1
 43
0.1
 10
53.15
 20
47.538
 42
-1.000000
 10
58.85
 20
47.538
 42
-1.000000
  0
LWPOLYLINE
  5
71
100
AcDbEntity
  8
ASSEMBLY_OUTLINES_BTM
100
AcDbPolyline
 90
        4
 70
         1
 43
0.1
 10
3.24
 20
34.603
 10
3.24
 20
38.803
 10
8.19
 20
38.803
 10
8.19
 20
34.603
  0
TEXT
  5
72
100
AcDbEntity
  8
ASSEMBLY_OUTLINES_BTM
100
AcDbText
 10
7.47415
 20
38.011
 30
0.0
 40
0.900000
 41
1.000000
  1
-
  7
VERIBEST_GERBER_0
 71
2
 72
 1
 11
7.066
 21
38.461
 31
0.0
100
AcDbText
 73
 2
  0
TEXT
  5
73
100
AcDbEntity
  8
ASSEMBLY_OUTLINES_BTM
100
AcDbText
 10
4.96505
 20
37.838
 30
0.0
 40
0.900000
 41
1.000000
  1
+
  7
VERIBEST_GERBER_0
 71
2
 72
 1
 11
4.547
 21
38.288
 31
0.0
100
AcDbText
 73
 2
  0
TEXT
  5
74
100
AcDbEntity
  8
ASSEMBLY_OUTLINES_BTM
100
AcDbText
 10
7.40935
 20
34.841
 30
0.0
 40
0.900000
 41
1.000000
  1
~
  7
VERIBEST_GERBER_0
 71
2
 72
 1
 11
6.985
 21
35.291
 31
0.0
100
AcDbText
 73
 2
  0
TEXT
  5
75
100
AcDbEntity
  8
ASSEMBLY_OUTLINES_BTM
100
AcDbText
 10
4.78735
 20
34.79
 30
0.0
 40
0.900000
 41
1.000000
  1
~
  7
VERIBEST_GERBER_0
 71
2
 72
 1
 11
4.363
 21
35.24
 31
0.0
100
AcDbText
 73
 2
  0
TEXT
  5
76
100
AcDbEntity
  8
ASSEMBLY_OUTLINES_BTM
100
AcDbText
 10
4.82925
 20
40.612
 30
0.0
 40
0.900000
 41
1.000000
  1
2
  7
VERIBEST_GERBER_0
 71
2
 72
 1
 11
4.404
 21
41.062
 31
0.0
100
AcDbText
 73
 2
  0
TEXT
  5
77
100
AcDbEntity
  8
ASSEMBLY_OUTLINES_BTM
100
AcDbText
 10
7.4145
 20
40.581
 30
0.0
 40
0.900000
 41
1.000000
  1
1
  7
VERIBEST_GERBER_0
 71
2
 72
 1
 11
7.005
 21
41.031
 31
0.0
100
AcDbText
 73
 2
  0
TEXT
  5
78
100
AcDbEntity
  8
ASSEMBLY_OUTLINES_BTM
100
AcDbText
 10
4.95125
 20
31.854
 30
0.0
 40
0.900000
 41
1.000000
  1
3
  7
VERIBEST_GERBER_0
 71
2
 72
 1
 11
4.526
 21
32.304
 31
0.0
100
AcDbText
 73
 2
  0
TEXT
  5
79
100
AcDbEntity
  8
ASSEMBLY_OUTLINES_BTM
100
AcDbText
 10
7.51125
 20
31.985
 30
0.0
 40
0.900000
 41
1.000000
  1
4
  7
VERIBEST_GERBER_0
 71
2
 72
 1
 11
7.086
 21
32.435
 31
0.0
100
AcDbText
 73
 2
  0
LWPOLYLINE
  5
7A
100
AcDbEntity
  8
ASSEMBLY_OUTLINES_BTM
100
AcDbPolyline
 90
        4
 70
         1
 43
0.1
 10
34.1958
 20
41.13
 10
34.1958
 20
45.229999
 10
38.295799
 20
45.229999
 10
38.295799
 20
41.13
  0
CIRCLE
  5
7B
100
AcDbEntity
  8
ASSEMBLY_OUTLINES_BTM
100
AcDbCircle
 10
33.361712
 20
41.607437
 30
0.0
 40
0.254
  0
HATCH
  5
7C
100
AcDbEntity
  8
ASSEMBLY_OUTLINES_BTM
100
AcDbHatch
 10
0.0
 20
0.0
 30
0.0
 210
0.0
 220
0.0
 230
1.0
  2
SOLID
 70
         1
 71
        1
 91
        1
  92
     1
  93
     1
 72
     2
 10
33.361712
 20
41.607437
  40
0.254
  50
     0.0
  51
     360.0
 73
     0
  97
     1
  330
    123
 75
     0
 76
     1
  98
     1
 10
0.0
 20
0.0
  0
LWPOLYLINE
  5
7D
100
AcDbEntity
  8
ASSEMBLY_OUTLINES_BTM
100
AcDbPolyline
 90
        4
 70
         1
 43
0.1
 10
81.501
 20
13.107
 10
81.501
 20
35.107
 10
89.501
 20
35.107
 10
89.501
 20
13.107
  0
LWPOLYLINE
  5
7E
100
AcDbEntity
  8
ASSEMBLY_OUTLINES_BTM
100
AcDbPolyline
 90
        3
 70
         1
 43
0.0
 10
91.401
 20
14.207
 10
90.601
 20
14.807
 10
91.401
 20
15.407
  0
HATCH
  5
7F
100
AcDbEntity
  8
ASSEMBLY_OUTLINES_BTM
100
AcDbHatch
 10
0.0
 20
0.0
 30
0.0
 210
0.0
 220
0.0
 230
1.0
  2
SOLID
 70
         1
 71
        1
 91
        1
  92
     2
 72
     0
 73
     1
  93
     3
 10
91.401
 20
14.207
 10
90.601
 20
14.807
 10
91.401
 20
15.407
  97
     1
  330
    126
 75
     0
 76
     1
  98
     1
 10
0.0
 20
0.0
  0
LWPOLYLINE
  5
80
100
AcDbEntity
  8
ASSEMBLY_OUTLINES_BTM
100
AcDbPolyline
 90
        2
 70
         1
 43
0.1
 10
53.551
 20
24.107
 42
-1.000000
 10
58.551
 20
24.107
 42
-1.000000
  0
LWPOLYLINE
  5
81
100
AcDbEntity
  8
ASSEMBLY_OUTLINES_BTM
100
AcDbPolyline
 90
        2
 70
         0
 43
0.2032
 10
56.051
 20
24.615
 10
56.051
 20
34.615
  0
LWPOLYLINE
  5
82
100
AcDbEntity
  8
ASSEMBLY_OUTLINES_BTM
100
AcDbPolyline
 90
        2
 70
         0
 43
0.2032
 10
83.7295
 20
34.107
 10
74.665482
 20
34.107
  0
LWPOLYLINE
  5
83
100
AcDbEntity
  8
ASSEMBLY_OUTLINES_BTM
100
AcDbPolyline
 90
        2
 70
         0
 43
0.2032
 10
65.686518
 20
34.107
 10
56.6225
 20
34.107
  0
LWPOLYLINE
  5
84
100
AcDbEntity
  8
ASSEMBLY_OUTLINES_BTM
100
AcDbPolyline
 90
        3
 70
         1
 43
0.0
 10
84.301
 20
34.107
 10
83.158
 20
34.678499
 10
83.158001
 20
33.5355
  0
HATCH
  5
85
100
AcDbEntity
  8
ASSEMBLY_OUTLINES_BTM
100
AcDbHatch
 10
0.0
 20
0.0
 30
0.0
 210
0.0
 220
0.0
 230
1.0
  2
SOLID
 70
         1
 71
        1
 91
        1
  92
     2
 72
     0
 73
     1
  93
     3
 10
84.301
 20
34.107
 10
83.158
 20
34.678499
 10
83.158001
 20
33.5355
  97
     1
  330
    132
 75
     0
 76
     1
  98
     1
 10
0.0
 20
0.0
  0
LWPOLYLINE
  5
86
100
AcDbEntity
  8
ASSEMBLY_OUTLINES_BTM
100
AcDbPolyline
 90
        3
 70
         1
 43
0.0
 10
56.051
 20
34.107
 10
57.194
 20
33.5355
 10
57.194
 20
34.6785
  0
HATCH
  5
87
100
AcDbEntity
  8
ASSEMBLY_OUTLINES_BTM
100
AcDbHatch
 10
0.0
 20
0.0
 30
0.0
 210
0.0
 220
0.0
 230
1.0
  2
SOLID
 70
         1
 71
        1
 91
        1
  92
     2
 72
     0
 73
     1
  93
     3
 10
56.051
 20
34.107
 10
57.194
 20
33.5355
 10
57.194
 20
34.6785
  97
     1
  330
    134
 75
     0
 76
     1
  98
     1
 10
0.0
 20
0.0
  0
LWPOLYLINE
  5
88
100
AcDbEntity
  8
ASSEMBLY_OUTLINES_BTM
100
AcDbPolyline
 90
        2
 70
         1
 43
0.1
 10
41.551
 20
24.107
 42
-1.000000
 10
46.551
 20
24.107
 42
-1.000000
  0
LWPOLYLINE
  5
89
100
AcDbEntity
  8
ASSEMBLY_OUTLINES_BTM
100
AcDbPolyline
 90
        2
 70
         0
 43
0.2032
 10
84.301
 20
34.615
 10
84.301
 20
37.015
  0
LWPOLYLINE
  5
8A
100
AcDbEntity
  8
ASSEMBLY_OUTLINES_BTM
100
AcDbPolyline
 90
        2
 70
         0
 43
0.2032
 10
44.051
 20
24.615
 10
44.051
 20
37.015
  0
LWPOLYLINE
  5
8B
100
AcDbEntity
  8
ASSEMBLY_OUTLINES_BTM
100
AcDbPolyline
 90
        2
 70
         0
 43
0.2032
 10
83.7295
 20
36.507
 10
68.665482
 20
36.507
  0
LWPOLYLINE
  5
8C
100
AcDbEntity
  8
ASSEMBLY_OUTLINES_BTM
100
AcDbPolyline
 90
        2
 70
         0
 43
0.2032
 10
59.686518
 20
36.507
 10
44.6225
 20
36.507
  0
LWPOLYLINE
  5
8D
100
AcDbEntity
  8
ASSEMBLY_OUTLINES_BTM
100
AcDbPolyline
 90
        3
 70
         1
 43
0.0
 10
84.301
 20
36.507
 10
83.158
 20
37.078499
 10
83.158001
 20
35.9355
  0
HATCH
  5
8E
100
AcDbEntity
  8
ASSEMBLY_OUTLINES_BTM
100
AcDbHatch
 10
0.0
 20
0.0
 30
0.0
 210
0.0
 220
0.0
 230
1.0
  2
SOLID
 70
         1
 71
        1
 91
        1
  92
     2
 72
     0
 73
     1
  93
     3
 10
84.301
 20
36.507
 10
83.158
 20
37.078499
 10
83.158001
 20
35.9355
  97
     1
  330
    141
 75
     0
 76
     1
  98
     1
 10
0.0
 20
0.0
  0
LWPOLYLINE
  5
8F
100
AcDbEntity
  8
ASSEMBLY_OUTLINES_BTM
100
AcDbPolyline
 90
        3
 70
         1
 43
0.0
 10
44.051
 20
36.507
 10
45.194
 20
35.9355
 10
45.194
 20
37.0785
  0
HATCH
  5
90
100
AcDbEntity
  8
ASSEMBLY_OUTLINES_BTM
100
AcDbHatch
 10
0.0
 20
0.0
 30
0.0
 210
0.0
 220
0.0
 230
1.0
  2
SOLID
 70
         1
 71
        1
 91
        1
  92
     2
 72
     0
 73
     1
  93
     3
 10
44.051
 20
36.507
 10
45.194
 20
35.9355
 10
45.194
 20
37.0785
  97
     1
  330
    143
 75
     0
 76
     1
  98
     1
 10
0.0
 20
0.0
  0
LWPOLYLINE
  5
91
100
AcDbEntity
  8
ASSEMBLY_OUTLINES_BTM
100
AcDbPolyline
 90
        2
 70
         1
 43
0.1
 10
23.551
 20
24.107
 42
-1.000000
 10
28.551
 20
24.107
 42
-1.000000
  0
LWPOLYLINE
  5
92
100
AcDbEntity
  8
ASSEMBLY_OUTLINES_BTM
100
AcDbPolyline
 90
        2
 70
         0
 43
0.2032
 10
84.301
 20
34.615
 10
84.301
 20
39.515
  0
LWPOLYLINE
  5
93
100
AcDbEntity
  8
ASSEMBLY_OUTLINES_BTM
100
AcDbPolyline
 90
        2
 70
         0
 43
0.2032
 10
26.051
 20
24.615
 10
26.051
 20
39.515
  0
LWPOLYLINE
  5
94
100
AcDbEntity
  8
ASSEMBLY_OUTLINES_BTM
100
AcDbPolyline
 90
        2
 70
         0
 43
0.2032
 10
83.7295
 20
39.007
 10
59.665482
 20
39.007
  0
LWPOLYLINE
  5
95
100
AcDbEntity
  8
ASSEMBLY_OUTLINES_BTM
100
AcDbPolyline
 90
        2
 70
         0
 43
0.2032
 10
50.686518
 20
39.007
 10
26.6225
 20
39.007
  0
LWPOLYLINE
  5
96
100
AcDbEntity
  8
ASSEMBLY_OUTLINES_BTM
100
AcDbPolyline
 90
        3
 70
         1
 43
0.0
 10
84.301
 20
39.007
 10
83.158
 20
39.578499
 10
83.158001
 20
38.4355
  0
HATCH
  5
97
100
AcDbEntity
  8
ASSEMBLY_OUTLINES_BTM
100
AcDbHatch
 10
0.0
 20
0.0
 30
0.0
 210
0.0
 220
0.0
 230
1.0
  2
SOLID
 70
         1
 71
        1
 91
        1
  92
     2
 72
     0
 73
     1
  93
     3
 10
84.301
 20
39.007
 10
83.158
 20
39.578499
 10
83.158001
 20
38.4355
  97
     1
  330
    150
 75
     0
 76
     1
  98
     1
 10
0.0
 20
0.0
  0
LWPOLYLINE
  5
98
100
AcDbEntity
  8
ASSEMBLY_OUTLINES_BTM
100
AcDbPolyline
 90
        3
 70
         1
 43
0.0
 10
26.051
 20
39.007
 10
27.194
 20
38.4355
 10
27.194
 20
39.5785
  0
HATCH
  5
99
100
AcDbEntity
  8
ASSEMBLY_OUTLINES_BTM
100
AcDbHatch
 10
0.0
 20
0.0
 30
0.0
 210
0.0
 220
0.0
 230
1.0
  2
SOLID
 70
         1
 71
        1
 91
        1
  92
     2
 72
     0
 73
     1
  93
     3
 10
26.051
 20
39.007
 10
27.194
 20
38.4355
 10
27.194
 20
39.5785
  97
     1
  330
    152
 75
     0
 76
     1
  98
     1
 10
0.0
 20
0.0
  0
LWPOLYLINE
  5
9A
100
AcDbEntity
  8
ASSEMBLY_OUTLINES_BTM
100
AcDbPolyline
 90
        2
 70
         1
 43
0.1
 10
-26.449
 20
24.107
 42
-1.000000
 10
-21.449
 20
24.107
 42
-1.000000
  0
LWPOLYLINE
  5
9B
100
AcDbEntity
  8
ASSEMBLY_OUTLINES_BTM
100
AcDbPolyline
 90
        2
 70
         0
 43
0.2032
 10
84.301
 20
34.615
 10
84.301
 20
44.415
  0
LWPOLYLINE
  5
9C
100
AcDbEntity
  8
ASSEMBLY_OUTLINES_BTM
100
AcDbPolyline
 90
        2
 70
         0
 43
0.2032
 10
-23.949
 20
24.615
 10
-23.949
 20
44.415
  0
LWPOLYLINE
  5
9D
100
AcDbEntity
  8
ASSEMBLY_OUTLINES_BTM
100
AcDbPolyline
 90
        2
 70
         0
 43
0.2032
 10
83.7295
 20
43.907
 10
35.222218
 20
43.907
  0
LWPOLYLINE
  5
9E
100
AcDbEntity
  8
ASSEMBLY_OUTLINES_BTM
100
AcDbPolyline
 90
        2
 70
         0
 43
0.2032
 10
25.129782
 20
43.907
 10
-23.3775
 20
43.907
  0
LWPOLYLINE
  5
9F
100
AcDbEntity
  8
ASSEMBLY_OUTLINES_BTM
100
AcDbPolyline
 90
        3
 70
         1
 43
0.0
 10
84.301
 20
43.907
 10
83.158
 20
44.478499
 10
83.158001
 20
43.3355
  0
HATCH
  5
A0
100
AcDbEntity
  8
ASSEMBLY_OUTLINES_BTM
100
AcDbHatch
 10
0.0
 20
0.0
 30
0.0
 210
0.0
 220
0.0
 230
1.0
  2
SOLID
 70
         1
 71
        1
 91
        1
  92
     2
 72
     0
 73
     1
  93
     3
 10
84.301
 20
43.907
 10
83.158
 20
44.478499
 10
83.158001
 20
43.3355
  97
     1
  330
    159
 75
     0
 76
     1
  98
     1
 10
0.0
 20
0.0
  0
LWPOLYLINE
  5
A1
100
AcDbEntity
  8
ASSEMBLY_OUTLINES_BTM
100
AcDbPolyline
 90
        3
 70
         1
 43
0.0
 10
-23.949
 20
43.907
 10
-22.806
 20
43.3355
 10
-22.806
 20
44.4785
  0
HATCH
  5
A2
100
AcDbEntity
  8
ASSEMBLY_OUTLINES_BTM
100
AcDbHatch
 10
0.0
 20
0.0
 30
0.0
 210
0.0
 220
0.0
 230
1.0
  2
SOLID
 70
         1
 71
        1
 91
        1
  92
     2
 72
     0
 73
     1
  93
     3
 10
-23.949
 20
43.907
 10
-22.806
 20
43.3355
 10
-22.806
 20
44.4785
  97
     1
  330
    161
 75
     0
 76
     1
  98
     1
 10
0.0
 20
0.0
  0
LWPOLYLINE
  5
A3
100
AcDbEntity
  8
ASSEMBLY_OUTLINES_BTM
100
AcDbPolyline
 90
        2
 70
         1
 43
0.1
 10
3.551
 20
24.107
 42
-1.000000
 10
8.551
 20
24.107
 42
-1.000000
  0
LWPOLYLINE
  5
A4
100
AcDbEntity
  8
ASSEMBLY_OUTLINES_BTM
100
AcDbPolyline
 90
        2
 70
         0
 43
0.2032
 10
84.301
 20
34.615
 10
84.301
 20
41.915
  0
LWPOLYLINE
  5
A5
100
AcDbEntity
  8
ASSEMBLY_OUTLINES_BTM
100
AcDbPolyline
 90
        2
 70
         0
 43
0.2032
 10
6.051
 20
24.615
 10
6.051
 20
41.915
  0
LWPOLYLINE
  5
A6
100
AcDbEntity
  8
ASSEMBLY_OUTLINES_BTM
100
AcDbPolyline
 90
        2
 70
         0
 43
0.2032
 10
83.7295
 20
41.407
 10
49.665482
 20
41.407
  0
LWPOLYLINE
  5
A7
100
AcDbEntity
  8
ASSEMBLY_OUTLINES_BTM
100
AcDbPolyline
 90
        2
 70
         0
 43
0.2032
 10
40.686518
 20
41.407
 10
6.6225
 20
41.407
  0
LWPOLYLINE
  5
A8
100
AcDbEntity
  8
ASSEMBLY_OUTLINES_BTM
100
AcDbPolyline
 90
        3
 70
         1
 43
0.0
 10
84.301
 20
41.407
 10
83.158
 20
41.978499
 10
83.158001
 20
40.8355
  0
HATCH
  5
A9
100
AcDbEntity
  8
ASSEMBLY_OUTLINES_BTM
100
AcDbHatch
 10
0.0
 20
0.0
 30
0.0
 210
0.0
 220
0.0
 230
1.0
  2
SOLID
 70
         1
 71
        1
 91
        1
  92
     2
 72
     0
 73
     1
  93
     3
 10
84.301
 20
41.407
 10
83.158
 20
41.978499
 10
83.158001
 20
40.8355
  97
     1
  330
    168
 75
     0
 76
     1
  98
     1
 10
0.0
 20
0.0
  0
LWPOLYLINE
  5
AA
100
AcDbEntity
  8
ASSEMBLY_OUTLINES_BTM
100
AcDbPolyline
 90
        3
 70
         1
 43
0.0
 10
6.051
 20
41.407
 10
7.194
 20
40.8355
 10
7.194
 20
41.9785
  0
HATCH
  5
AB
100
AcDbEntity
  8
ASSEMBLY_OUTLINES_BTM
100
AcDbHatch
 10
0.0
 20
0.0
 30
0.0
 210
0.0
 220
0.0
 230
1.0
  2
SOLID
 70
         1
 71
        1
 91
        1
  92
     2
 72
     0
 73
     1
  93
     3
 10
6.051
 20
41.407
 10
7.194
 20
40.8355
 10
7.194
 20
41.9785
  97
     1
  330
    170
 75
     0
 76
     1
  98
     1
 10
0.0
 20
0.0
  0
TEXT
  5
AC
100
AcDbEntity
  8
ASSEMBLY_OUTLINES_BTM
100
AcDbText
 10
81.4712
 20
14.540225
 30
0.0
 40
0.890000
 41
1.000000
  1
2
  50
270.0
  7
ARIAL
 71
2
 72
 1
 11
81.934
 21
14.894
 31
0.0
100
AcDbText
 73
 2
  0
TEXT
  5
AD
100
AcDbEntity
  8
ASSEMBLY_OUTLINES_BTM
100
AcDbText
 10
81.5172
 20
28.02445
 30
0.0
 40
0.890000
 41
1.000000
  1
58
  50
270.0
  7
ARIAL
 71
2
 72
 1
 11
81.98
 21
28.732
 31
0.0
100
AcDbText
 73
 2
  0
TEXT
  5
AE
100
AcDbEntity
  8
ASSEMBLY_OUTLINES_BTM
100
AcDbText
 10
81.5692
 20
30.50745
 30
0.0
 40
0.890000
 41
1.000000
  1
68
  50
270.0
  7
ARIAL
 71
2
 72
 1
 11
82.032
 21
31.215
 31
0.0
100
AcDbText
 73
 2
  0
TEXT
  5
AF
100
AcDbEntity
  8
ASSEMBLY_OUTLINES_BTM
100
AcDbText
 10
81.5952
 20
32.61345
 30
0.0
 40
0.890000
 41
1.000000
  1
74
  50
270.0
  7
ARIAL
 71
2
 72
 1
 11
82.058
 21
33.321
 31
0.0
100
AcDbText
 73
 2
  0
TEXT
  5
B0
100
AcDbEntity
  8
ASSEMBLY_OUTLINES_BTM
100
AcDbText
 10
89.0312
 20
28.10245
 30
0.0
 40
0.890000
 41
1.000000
  1
57
  50
270.0
  7
ARIAL
 71
2
 72
 1
 11
89.494
 21
28.81
 31
0.0
100
AcDbText
 73
 2
  0
TEXT
  5
B1
100
AcDbEntity
  8
ASSEMBLY_OUTLINES_BTM
100
AcDbText
 10
89.0832
 20
30.58545
 30
0.0
 40
0.890000
 41
1.000000
  1
67
  50
270.0
  7
ARIAL
 71
2
 72
 1
 11
89.546
 21
31.293
 31
0.0
100
AcDbText
 73
 2
  0
TEXT
  5
B2
100
AcDbEntity
  8
ASSEMBLY_OUTLINES_BTM
100
AcDbText
 10
89.1092
 20
32.69145
 30
0.0
 40
0.890000
 41
1.000000
  1
75
  50
270.0
  7
ARIAL
 71
2
 72
 1
 11
89.572
 21
33.399
 31
0.0
100
AcDbText
 73
 2
  0
TEXT
  5
B3
100
AcDbEntity
  8
ASSEMBLY_OUTLINES_BTM
100
AcDbText
 10
49.227935
 20
40.772
 30
0.0
 40
1.270000
 41
1.000000
  1
78.25mm
  7
VERIBEST_GERBER_1
 71
2
 72
 1
 11
45.176
 21
41.407
 31
0.0
100
AcDbText
 73
 2
  0
TEXT
  5
B4
100
AcDbEntity
  8
ASSEMBLY_OUTLINES_BTM
100
AcDbText
 10
74.227935
 20
33.472
 30
0.0
 40
1.270000
 41
1.000000
  1
28.25mm
  7
VERIBEST_GERBER_1
 71
2
 72
 1
 11
70.176
 21
34.107
 31
0.0
100
AcDbText
 73
 2
  0
TEXT
  5
B5
100
AcDbEntity
  8
ASSEMBLY_OUTLINES_BTM
100
AcDbText
 10
68.227935
 20
35.872
 30
0.0
 40
1.270000
 41
1.000000
  1
40.25mm
  7
VERIBEST_GERBER_1
 71
2
 72
 1
 11
64.176
 21
36.507
 31
0.0
100
AcDbText
 73
 2
  0
TEXT
  5
B6
100
AcDbEntity
  8
ASSEMBLY_OUTLINES_BTM
100
AcDbText
 10
59.227935
 20
38.372
 30
0.0
 40
1.270000
 41
1.000000
  1
58.25mm
  7
VERIBEST_GERBER_1
 71
2
 72
 1
 11
55.176
 21
39.007
 31
0.0
100
AcDbText
 73
 2
  0
TEXT
  5
B7
100
AcDbEntity
  8
ASSEMBLY_OUTLINES_BTM
100
AcDbText
 10
34.75816
 20
43.272
 30
0.0
 40
1.270000
 41
1.000000
  1
108.25mm
  7
VERIBEST_GERBER_1
 71
2
 72
 1
 11
30.176
 21
43.907
 31
0.0
100
AcDbText
 73
 2
  0
LWPOLYLINE
  5
B8
100
AcDbEntity
  8
ASSEMBLY_OUTLINES_BTM
100
AcDbPolyline
 90
        4
 70
         1
 43
0.1
 10
32.3972
 20
33.222
 10
32.3972
 20
37.572
 10
38.547199
 20
37.572
 10
38.547199
 20
33.222
  0
LWPOLYLINE
  5
B9
100
AcDbEntity
  8
ASSEMBLY_OUTLINES_BTM
100
AcDbPolyline
 90
        17
 70
         1
 43
0.1
 10
93.497
 20
34.713
 10
93.477
 20
34.703
 10
92.277
 20
34.703
 10
92.277
 20
56.713
 10
93.497
 20
56.713
 10
93.497
 20
56.723
 10
93.497
 20
56.143
 42
0.414214
 10
93.997
 20
55.643
 10
97.477
 20
55.643
 10
97.477
 20
52.433
 10
94.577
 20
52.433
 42
0.414214
 10
93.977
 20
51.833
 42
0.414214
 10
94.577
 20
51.233
 10
97.477
 20
51.233
 10
97.477
 20
35.783
 10
93.997
 20
35.793
 42
0.414214
 10
93.497
 20
35.293
  0
LWPOLYLINE
  5
BA
100
AcDbEntity
  8
ASSEMBLY_OUTLINES_BTM
100
AcDbPolyline
 90
        4
 70
         1
 43
0.0
 10
64.49
 20
14.8766
 10
64.49
 20
15.8066
 10
66.32
 20
15.8066
 10
66.32
 20
14.8766
  0
LWPOLYLINE
  5
BB
100
AcDbEntity
  8
ASSEMBLY_OUTLINES_BTM
100
AcDbPolyline
 90
        4
 70
         1
 43
0.0
 10
56.2024
 20
15.7728
 10
56.2024
 20
17.6028
 10
57.1324
 20
17.6028
 10
57.1324
 20
15.7728
  0
LWPOLYLINE
  5
BC
100
AcDbEntity
  8
ASSEMBLY_OUTLINES_BTM
100
AcDbPolyline
 90
        4
 70
         1
 43
0.0
 10
64.49
 20
13.886
 10
64.49
 20
14.816
 10
66.32
 20
14.816
 10
66.32
 20
13.886
  0
LWPOLYLINE
  5
BD
100
AcDbEntity
  8
ASSEMBLY_OUTLINES_BTM
100
AcDbPolyline
 90
        4
 70
         1
 43
0.0
 10
64.5844
 20
7.7718
 10
64.5844
 20
9.6018
 10
65.5144
 20
9.6018
 10
65.5144
 20
7.7718
  0
LWPOLYLINE
  5
BE
100
AcDbEntity
  8
ASSEMBLY_OUTLINES_BTM
100
AcDbPolyline
 90
        4
 70
         1
 43
0.0
 10
64.49
 20
12.743
 10
64.49
 20
13.673
 10
66.32
 20
13.673
 10
66.32
 20
12.743
  0
LWPOLYLINE
  5
BF
100
AcDbEntity
  8
ASSEMBLY_OUTLINES_BTM
100
AcDbPolyline
 90
        4
 70
         1
 43
0.0
 10
64.617
 20
6.647
 10
64.617
 20
7.577
 10
66.447
 20
7.577
 10
66.447
 20
6.647
  0
LWPOLYLINE
  5
C0
100
AcDbEntity
  8
ASSEMBLY_OUTLINES_BTM
100
AcDbPolyline
 90
        4
 70
         1
 43
0.0254
 10
59.1312
 20
4.1148
 10
59.1312
 20
4.9276
 10
60.7568
 20
4.9276
 10
60.7568
 20
4.1148
  0
LWPOLYLINE
  5
C1
100
AcDbEntity
  8
ASSEMBLY_OUTLINES_BTM
100
AcDbPolyline
 90
        4
 70
         1
 43
0.0
 10
54.7292
 20
3.9872
 10
54.7292
 20
5.8172
 10
55.6592
 20
5.8172
 10
55.6592
 20
3.9872
  0
LWPOLYLINE
  5
C2
100
AcDbEntity
  8
ASSEMBLY_OUTLINES_BTM
100
AcDbPolyline
 90
        4
 70
         1
 43
0.0
 10
54.7618
 20
2.7862
 10
54.7618
 20
3.7162
 10
56.5918
 20
3.7162
 10
56.5918
 20
2.7862
  0
LWPOLYLINE
  5
C3
100
AcDbEntity
  8
ASSEMBLY_OUTLINES_BTM
100
AcDbPolyline
 90
        4
 70
         1
 43
0.0
 10
57.5486
 20
2.7934
 10
57.5486
 20
4.6234
 10
58.4786
 20
4.6234
 10
58.4786
 20
2.7934
  0
LWPOLYLINE
  5
C4
100
AcDbEntity
  8
ASSEMBLY_OUTLINES_BTM
100
AcDbPolyline
 90
        4
 70
         1
 43
0.0
 10
51.0788
 20
5.7834
 10
51.0788
 20
6.7134
 10
52.9088
 20
6.7134
 10
52.9088
 20
5.7834
  0
LWPOLYLINE
  5
C5
100
AcDbEntity
  8
ASSEMBLY_OUTLINES_BTM
100
AcDbPolyline
 90
        4
 70
         1
 43
0.0
 10
64.49
 20
11.727
 10
64.49
 20
12.657
 10
66.32
 20
12.657
 10
66.32
 20
11.727
  0
LWPOLYLINE
  5
C6
100
AcDbEntity
  8
ASSEMBLY_OUTLINES_BTM
100
AcDbPolyline
 90
        4
 70
         1
 43
0.0254
 10
56.7436
 20
2.8702
 10
56.7436
 20
4.6482
 10
57.404
 20
4.6482
 10
57.404
 20
2.8702
  0
LWPOLYLINE
  5
C7
100
AcDbEntity
  8
ASSEMBLY_OUTLINES_BTM
100
AcDbPolyline
 90
        4
 70
         1
 43
0.0
 10
78.2026
 20
14.9878
 10
78.2026
 20
16.8178
 10
79.1326
 20
16.8178
 10
79.1326
 20
14.9878
  0
LWPOLYLINE
  5
C8
100
AcDbEntity
  8
ASSEMBLY_OUTLINES_BTM
100
AcDbPolyline
 90
        4
 70
         1
 43
0.0
 10
79.2186
 20
15.0132
 10
79.2186
 20
16.8432
 10
80.1486
 20
16.8432
 10
80.1486
 20
15.0132
  0
LWPOLYLINE
  5
C9
100
AcDbEntity
  8
ASSEMBLY_OUTLINES_BTM
100
AcDbPolyline
 90
        4
 70
         1
 43
0.0
 10
80.2092
 20
15.0132
 10
80.2092
 20
16.8432
 10
81.1392
 20
16.8432
 10
81.1392
 20
15.0132
  0
LWPOLYLINE
  5
CA
100
AcDbEntity
  8
ASSEMBLY_OUTLINES_BTM
100
AcDbPolyline
 90
        4
 70
         1
 43
0.0254
 10
13.1318
 20
43.350688
 10
13.1318
 20
45.752512
 10
13.9446
 20
45.752512
 10
13.9446
 20
43.350688
  0
LWPOLYLINE
  5
CB
100
AcDbEntity
  8
ASSEMBLY_OUTLINES_BTM
100
AcDbPolyline
 90
        4
 70
         1
 43
0.0254
 10
4.539488
 20
40.7162
 10
4.539488
 20
41.529
 10
6.941312
 20
41.529
 10
6.941312
 20
40.7162
  0
LWPOLYLINE
  5
CC
100
AcDbEntity
  8
ASSEMBLY_OUTLINES_BTM
100
AcDbPolyline
 90
        4
 70
         1
 43
0.1016
 10
5.921248
 20
41.831006
 10
5.921248
 20
47.830994
 10
9.420352
 20
47.830994
 10
9.420352
 20
41.831006
  0
LWPOLYLINE
  5
CD
100
AcDbEntity
  8
ASSEMBLY_OUTLINES_BTM
100
AcDbPolyline
 90
        4
 70
         1
 43
0.1016
 10
14.1732
 20
42.291
 10
14.1732
 20
47.371
 10
17.4752
 20
47.371
 10
17.4752
 20
42.291
  0
LWPOLYLINE
  5
CE
100
AcDbEntity
  8
ASSEMBLY_OUTLINES_BTM
100
AcDbPolyline
 90
        4
 70
         1
 43
0.0254
 10
34.2392
 20
39.9288
 10
34.2392
 20
40.7416
 10
35.8648
 20
40.7416
 10
35.8648
 20
39.9288
  0
LWPOLYLINE
  5
CF
100
AcDbEntity
  8
ASSEMBLY_OUTLINES_BTM
100
AcDbPolyline
 90
        4
 70
         1
 43
0.0
 10
79.037
 20
56.0318
 10
79.037
 20
57.8618
 10
79.967
 20
57.8618
 10
79.967
 20
56.0318
  0
LWPOLYLINE
  5
D0
100
AcDbEntity
  8
ASSEMBLY_OUTLINES_BTM
100
AcDbPolyline
 90
        4
 70
         1
 43
0.0254
 10
40.4368
 20
51.0286
 10
40.4368
 20
54.3306
 10
42.9768
 20
54.3306
 10
42.9768
 20
51.0286
  0
TEXT
  5
D1
100
AcDbEntity
  8
ASSEMBLY_OUTLINES_BTM
100
AcDbText
 10
42.706544
 20
49.01438
 30
0.0
 40
1.524000
 41
1.000000
  1
+
  50
270.0
  7
VERIBEST_GERBER_0
 71
2
 72
 2
 11
42.706544
 21
50.430176
 31
0.0
100
AcDbText
 73
 1
  0
LWPOLYLINE
  5
D2
100
AcDbEntity
  8
ASSEMBLY_OUTLINES_BTM
100
AcDbPolyline
 90
        4
 70
         1
 43
0.0254
 10
44.196
 20
51.054
 10
44.196
 20
54.356
 10
46.736
 20
54.356
 10
46.736
 20
51.054
  0
TEXT
  5
D3
100
AcDbEntity
  8
ASSEMBLY_OUTLINES_BTM
100
AcDbText
 10
46.465744
 20
49.03978
 30
0.0
 40
1.524000
 41
1.000000
  1
+
  50
270.0
  7
VERIBEST_GERBER_0
 71
2
 72
 2
 11
46.465744
 21
50.455576
 31
0.0
100
AcDbText
 73
 1
  0
LWPOLYLINE
  5
D4
100
AcDbEntity
  8
ASSEMBLY_OUTLINES_BTM
100
AcDbPolyline
 90
        4
 70
         1
 43
0.0254
 10
25.4762
 20
43.815
 10
25.4762
 20
47.117
 10
28.0162
 20
47.117
 10
28.0162
 20
43.815
  0
TEXT
  5
D5
100
AcDbEntity
  8
ASSEMBLY_OUTLINES_BTM
100
AcDbText
 10
24.222456
 20
47.715424
 30
0.0
 40
1.524000
 41
1.000000
  1
+
  50
270.0
  7
VERIBEST_GERBER_0
 71
2
 11
25.746456
 21
47.715424
 31
0.0
100
AcDbText
 73
 3
  0
LWPOLYLINE
  5
D6
100
AcDbEntity
  8
ASSEMBLY_OUTLINES_BTM
100
AcDbPolyline
 90
        4
 70
         1
 43
0.0254
 10
48.26
 20
50.927
 10
48.26
 20
54.229
 10
50.8
 20
54.229
 10
50.8
 20
50.927
  0
TEXT
  5
D7
100
AcDbEntity
  8
ASSEMBLY_OUTLINES_BTM
100
AcDbText
 10
50.529744
 20
48.91278
 30
0.0
 40
1.524000
 41
1.000000
  1
+
  50
270.0
  7
VERIBEST_GERBER_0
 71
2
 72
 2
 11
50.529744
 21
50.328576
 31
0.0
100
AcDbText
 73
 1
  0
LWPOLYLINE
  5
D8
100
AcDbEntity
  8
ASSEMBLY_OUTLINES_BTM
100
AcDbPolyline
 90
        4
 70
         1
 43
0.0254
 10
29.2862
 20
43.815
 10
29.2862
 20
47.117
 10
31.8262
 20
47.117
 10
31.8262
 20
43.815
  0
TEXT
  5
D9
100
AcDbEntity
  8
ASSEMBLY_OUTLINES_BTM
100
AcDbText
 10
28.032456
 20
47.715424
 30
0.0
 40
1.524000
 41
1.000000
  1
+
  50
270.0
  7
VERIBEST_GERBER_0
 71
2
 11
29.556456
 21
47.715424
 31
0.0
100
AcDbText
 73
 3
  0
LWPOLYLINE
  5
DA
100
AcDbEntity
  8
ASSEMBLY_OUTLINES_BTM
100
AcDbPolyline
 90
        4
 70
         1
 43
0.0
 10
38.1762
 20
46.6852
 10
38.1762
 20
48.4124
 10
38.8874
 20
48.4124
 10
38.8874
 20
46.6852
  0
LWPOLYLINE
  5
DB
100
AcDbEntity
  8
ASSEMBLY_OUTLINES_BTM
100
AcDbPolyline
 90
        4
 70
         1
 43
0.0254
 10
36.594288
 20
45.6184
 10
36.594288
 20
46.4312
 10
38.996112
 20
46.4312
 10
38.996112
 20
45.6184
  0
LWPOLYLINE
  5
DC
100
AcDbEntity
  8
ASSEMBLY_OUTLINES_BTM
100
AcDbPolyline
 90
        4
 70
         1
 43
0.0
 10
36.2712
 20
47.7012
 10
36.2712
 20
48.4124
 10
37.9984
 20
48.4124
 10
37.9984
 20
47.7012
  0
LWPOLYLINE
  5
DD
100
AcDbEntity
  8
ASSEMBLY_OUTLINES_BTM
100
AcDbPolyline
 90
        4
 70
         1
 43
0.0254
 10
32.6644
 20
43.858688
 10
32.6644
 20
46.260512
 10
33.4772
 20
46.260512
 10
33.4772
 20
43.858688
  0
LWPOLYLINE
  5
DE
100
AcDbEntity
  8
ASSEMBLY_OUTLINES_BTM
100
AcDbPolyline
 90
        4
 70
         1
 43
0.0
 10
80.053
 20
56.0318
 10
80.053
 20
57.8618
 10
80.983
 20
57.8618
 10
80.983
 20
56.0318
  0
TEXT
  5
DF
100
AcDbEntity
  8
ASSEMBLY_REF_DES_BTM
100
AcDbText
 10
53.51375
 20
3.8648
 30
0.0
 40
0.500000
 41
1.000000
  1
OSC1
  7
VERIBEST_GERBER_0
 71
2
 72
 1
 11
52.578
 21
4.1148
 31
0.0
100
AcDbText
 73
 2
  0
TEXT
  5
E0
100
AcDbEntity
  8
ASSEMBLY_REF_DES_BTM
100
AcDbText
 10
14.72692
 20
38.738366
 30
0.0
 40
0.889000
 41
1.000000
  1
FB2
  50
270.0
  7
ARIAL
 71
2
 72
 1
 11
15.1892
 21
39.9034
 31
0.0
100
AcDbText
 73
 2
  0
TEXT
  5
E1
100
AcDbEntity
  8
ASSEMBLY_REF_DES_BTM
100
AcDbText
 10
12.255475
 20
36.385
 30
0.0
 40
0.890000
 41
1.000000
  1
D1
  7
VERIBEST_GERBER_0
 71
2
 72
 1
 11
11.43
 21
36.83
 31
0.0
100
AcDbText
 73
 2
  0
TEXT
  5
E2
100
AcDbEntity
  8
ASSEMBLY_REF_DES_BTM
100
AcDbText
 10
19.551
 20
5.978
 30
0.0
 40
1.000000
 41
1.000000
  1
J1
  7
ARIAL
 71
2
 72
 1
 11
18.796
 21
6.498
 31
0.0
100
AcDbText
 73
 2
  0
TEXT
  5
E3
100
AcDbEntity
  8
ASSEMBLY_REF_DES_BTM
100
AcDbText
 10
46.2323
 20
41.7976
 30
0.0
 40
0.900000
 41
1.000000
  1
L1
  7
ARIAL
 71
2
 72
 1
 11
45.5168
 21
42.2656
 31
0.0
100
AcDbText
 73
 2
  0
TEXT
  5
E4
100
AcDbEntity
  8
ASSEMBLY_REF_DES_BTM
100
AcDbText
 10
96.484
 20
24.34
 30
0.0
 40
0.900000
 41
1.000000
  1
P1
  50
270.0
  7
ARIAL
 71
2
 11
96.484
 21
24.34
 31
0.0
100
AcDbText
 73
 1
  0
TEXT
  5
E5
100
AcDbEntity
  8
ASSEMBLY_REF_DES_BTM
100
AcDbText
 10
10.858
 20
43.98995
 30
0.0
 40
0.890000
 41
1.000000
  1
D2
  50
270.0
  7
VERIBEST_GERBER_0
 71
2
 72
 1
 11
11.303
 21
44.831
 31
0.0
100
AcDbText
 73
 2
  0
TEXT
  5
E6
100
AcDbEntity
  8
ASSEMBLY_REF_DES_BTM
100
AcDbText
 10
5.7182
 20
23.6268
 30
0.0
 40
0.640000
 41
1.000000
  1
J2
  50
270.0
  7
ARIAL
 71
2
 72
 1
 11
6.051
 21
24.11
 31
0.0
100
AcDbText
 73
 2
  0
TEXT
  5
E7
100
AcDbEntity
  8
ASSEMBLY_REF_DES_BTM
100
AcDbText
 10
85.532
 20
46.7514
 30
0.0
 40
0.900000
 41
1.000000
  1
P2
  50
270.0
  7
ARIAL
 71
2
 72
 1
 11
86.0
 21
47.538
 31
0.0
100
AcDbText
 73
 2
  0
TEXT
  5
E8
100
AcDbEntity
  8
ASSEMBLY_REF_DES_BTM
100
AcDbText
 10
58.4652
 20
9.981985
 30
0.0
 40
0.890000
 41
1.000000
  1
U2
  50
270.0
  7
ARIAL
 71
2
 72
 1
 11
58.928
 21
10.795
 31
0.0
100
AcDbText
 73
 2
  0
TEXT
  5
E9
100
AcDbEntity
  8
ASSEMBLY_REF_DES_BTM
100
AcDbText
 10
56.4832
 20
47.2052
 30
0.0
 40
0.640000
 41
1.000000
  1
J3
  7
ARIAL
 71
2
 72
 1
 11
56.0
 21
47.538
 31
0.0
100
AcDbText
 73
 2
  0
TEXT
  5
EA
100
AcDbEntity
  8
ASSEMBLY_REF_DES_BTM
100
AcDbText
 10
6.53715
 20
36.235
 30
0.0
 40
0.900000
 41
1.000000
  1
D4
  7
ARIAL
 71
2
 72
 1
 11
5.715
 21
36.703
 31
0.0
100
AcDbText
 73
 2
  0
TEXT
  5
EB
100
AcDbEntity
  8
ASSEMBLY_REF_DES_BTM
100
AcDbText
 10
35.7778
 20
42.35785
 30
0.0
 40
0.900000
 41
1.000000
  1
U4
  50
270.0
  7
ARIAL
 71
2
 72
 1
 11
36.2458
 21
43.18
 31
0.0
100
AcDbText
 73
 2
  0
TEXT
  5
EC
100
AcDbEntity
  8
ASSEMBLY_REF_DES_BTM
100
AcDbText
 10
83.8382
 20
23.32914
 30
0.0
 40
0.890000
 41
1.000000
  1
P5
  50
270.0
  7
ARIAL
 71
2
 72
 1
 11
84.301
 21
24.107
 31
0.0
100
AcDbText
 73
 2
  0
TEXT
  5
ED
100
AcDbEntity
  8
ASSEMBLY_REF_DES_BTM
100
AcDbText
 10
36.0214
 20
34.578985
 30
0.0
 40
0.890000
 41
1.000000
  1
D6
  50
270.0
  7
ARIAL
 71
2
 72
 1
 11
36.4842
 21
35.392
 31
0.0
100
AcDbText
 73
 2
  0
TEXT
  5
EE
100
AcDbEntity
  8
ASSEMBLY_REF_DES_BTM
100
AcDbText
 10
96.481
 20
48.253
 30
0.0
 40
0.900000
 41
1.000000
  1
P6
  50
270.0
  7
ARIAL
 71
2
 11
96.481
 21
48.253
 31
0.0
100
AcDbText
 73
 1
  0
TEXT
  5
EF
100
AcDbEntity
  8
ASSEMBLY_REF_DES_BTM
100
AcDbText
 10
66.070988
 20
15.07744
 30
0.0
 40
0.508000
 41
1.000000
  1
R11
  7
ARIAL
 71
2
 72
 1
 11
65.405
 21
15.3416
 31
0.0
100
AcDbText
 73
 2
  0
TEXT
  5
F0
100
AcDbEntity
  8
ASSEMBLY_REF_DES_BTM
100
AcDbText
 10
56.40324
 20
16.021812
 30
0.0
 40
0.508000
 41
1.000000
  1
R12
  50
270.0
  7
ARIAL
 71
2
 72
 1
 11
56.6674
 21
16.6878
 31
0.0
100
AcDbText
 73
 2
  0
TEXT
  5
F1
100
AcDbEntity
  8
ASSEMBLY_REF_DES_BTM
100
AcDbText
 10
65.9294
 20
14.143
 30
0.0
 40
0.400000
 41
1.000000
  1
R13
  7
ARIAL
 71
2
 72
 1
 11
65.405
 21
14.351
 31
0.0
100
AcDbText
 73
 2
  0
TEXT
  5
F2
100
AcDbEntity
  8
ASSEMBLY_REF_DES_BTM
100
AcDbText
 10
64.8414
 20
8.1624
 30
0.0
 40
0.400000
 41
1.000000
  1
R14
  50
270.0
  7
ARIAL
 71
2
 72
 1
 11
65.0494
 21
8.6868
 31
0.0
100
AcDbText
 73
 2
  0
TEXT
  5
F3
100
AcDbEntity
  8
ASSEMBLY_REF_DES_BTM
100
AcDbText
 10
65.7704
 20
13.0
 30
0.0
 40
0.400000
 41
1.000000
  1
C8
  7
ARIAL
 71
2
 72
 1
 11
65.405
 21
13.208
 31
0.0
100
AcDbText
 73
 2
  0
TEXT
  5
F4
100
AcDbEntity
  8
ASSEMBLY_REF_DES_BTM
100
AcDbText
 10
66.0564
 20
6.904
 30
0.0
 40
0.400000
 41
1.000000
  1
R15
  7
ARIAL
 71
2
 72
 1
 11
65.532
 21
7.112
 31
0.0
100
AcDbText
 73
 2
  0
TEXT
  5
F5
100
AcDbEntity
  8
ASSEMBLY_REF_DES_BTM
100
AcDbText
 10
60.746513
 20
4.220972
 30
0.0
 40
0.635000
 41
1.000000
  1
C21
  7
ARIAL
 71
2
 72
 1
 11
59.914028
 21
4.551172
 31
0.0
100
AcDbText
 73
 2
  0
TEXT
  5
F6
100
AcDbEntity
  8
ASSEMBLY_REF_DES_BTM
100
AcDbText
 10
54.930034
 20
4.236132
 30
0.0
 40
0.508000
 41
1.000000
  1
R16
  50
270.0
  7
ARIAL
 71
2
 72
 1
 11
55.194194
 21
4.90212
 31
0.0
100
AcDbText
 73
 2
  0
TEXT
  5
F7
100
AcDbEntity
  8
ASSEMBLY_REF_DES_BTM
100
AcDbText
 10
56.342788
 20
2.98704
 30
0.0
 40
0.508000
 41
1.000000
  1
R17
  7
ARIAL
 71
2
 72
 1
 11
55.6768
 21
3.2512
 31
0.0
100
AcDbText
 73
 2
  0
TEXT
  5
F8
100
AcDbEntity
  8
ASSEMBLY_REF_DES_BTM
100
AcDbText
 10
57.8056
 20
3.184
 30
0.0
 40
0.400000
 41
1.000000
  1
R18
  50
270.0
  7
ARIAL
 71
2
 72
 1
 11
58.0136
 21
3.7084
 31
0.0
100
AcDbText
 73
 2
  0
TEXT
  5
F9
100
AcDbEntity
  8
ASSEMBLY_REF_DES_BTM
100
AcDbText
 10
52.659788
 20
5.98424
 30
0.0
 40
0.508000
 41
1.000000
  1
C28
  7
ARIAL
 71
2
 72
 1
 11
51.9938
 21
6.2484
 31
0.0
100
AcDbText
 73
 2
  0
TEXT
  5
FA
100
AcDbEntity
  8
ASSEMBLY_REF_DES_BTM
100
AcDbText
 10
65.869058
 20
11.92784
 30
0.0
 40
0.508000
 41
1.000000
  1
C9
  7
ARIAL
 71
2
 72
 1
 11
65.405
 21
12.192
 31
0.0
100
AcDbText
 73
 2
  0
TEXT
  5
FB
100
AcDbEntity
  8
ASSEMBLY_REF_DES_BTM
100
AcDbText
 10
56.80964
 20
3.093212
 30
0.0
 40
0.508000
 41
1.000000
  1
C29
  50
270.0
  7
ARIAL
 71
2
 72
 1
 11
57.0738
 21
3.7592
 31
0.0
100
AcDbText
 73
 2
  0
TEXT
  5
FC
100
AcDbEntity
  8
ASSEMBLY_REF_DES_BTM
100
AcDbText
 10
78.40344
 20
15.236812
 30
0.0
 40
0.508000
 41
1.000000
  1
C33
  50
270.0
  7
ARIAL
 71
2
 72
 1
 11
78.6676
 21
15.9028
 31
0.0
100
AcDbText
 73
 2
  0
TEXT
  5
FD
100
AcDbEntity
  8
ASSEMBLY_REF_DES_BTM
100
AcDbText
 10
79.41944
 20
15.262212
 30
0.0
 40
0.508000
 41
1.000000
  1
C34
  50
270.0
  7
ARIAL
 71
2
 72
 1
 11
79.6836
 21
15.9282
 31
0.0
100
AcDbText
 73
 2
  0
TEXT
  5
FE
100
AcDbEntity
  8
ASSEMBLY_REF_DES_BTM
100
AcDbText
 10
80.4662
 20
15.4038
 30
0.0
 40
0.400000
 41
1.000000
  1
C35
  50
270.0
  7
ARIAL
 71
2
 72
 1
 11
80.6742
 21
15.9282
 31
0.0
100
AcDbText
 73
 2
  0
TEXT
  5
FF
100
AcDbEntity
  8
ASSEMBLY_REF_DES_BTM
100
AcDbText
 10
13.2054
 20
43.71256
 30
0.0
 40
0.640000
 41
1.000000
  1
C37
  50
270.0
  7
ARIAL
 71
2
 72
 1
 11
13.5382
 21
44.5516
 31
0.0
100
AcDbText
 73
 2
  0
TEXT
  5
100
100
AcDbEntity
  8
ASSEMBLY_REF_DES_BTM
100
AcDbText
 10
6.57944
 20
40.7898
 30
0.0
 40
0.640000
 41
1.000000
  1
C38
  7
ARIAL
 71
2
 72
 1
 11
5.7404
 21
41.1226
 31
0.0
100
AcDbText
 73
 2
  0
TEXT
  5
101
100
AcDbEntity
  8
ASSEMBLY_REF_DES_BTM
100
AcDbText
 10
7.65048
 20
43.499024
 30
0.0
 40
1.016000
 41
1.000000
  1
C41
  50
270.0
  7
ARIAL
 71
2
 72
 1
 11
8.1788
 21
44.831
 31
0.0
100
AcDbText
 73
 2
  0
TEXT
  5
102
100
AcDbEntity
  8
ASSEMBLY_REF_DES_BTM
100
AcDbText
 10
15.36192
 20
43.665521
 30
0.0
 40
0.889000
 41
1.000000
  1
C39
  50
270.0
  7
ARIAL
 71
2
 72
 1
 11
15.8242
 21
44.831
 31
0.0
100
AcDbText
 73
 2
  0
TEXT
  5
103
100
AcDbEntity
  8
ASSEMBLY_REF_DES_BTM
100
AcDbText
 10
35.717988
 20
40.07104
 30
0.0
 40
0.508000
 41
1.000000
  1
C45
  7
ARIAL
 71
2
 72
 1
 11
35.052
 21
40.3352
 31
0.0
100
AcDbText
 73
 2
  0
TEXT
  5
104
100
AcDbEntity
  8
ASSEMBLY_REF_DES_BTM
100
AcDbText
 10
79.294
 20
56.4224
 30
0.0
 40
0.400000
 41
1.000000
  1
C46
  50
270.0
  7
ARIAL
 71
2
 72
 1
 11
79.502
 21
56.9468
 31
0.0
100
AcDbText
 73
 2
  0
TEXT
  5
105
100
AcDbEntity
  8
ASSEMBLY_REF_DES_BTM
100
AcDbText
 10
41.0464
 20
51.01463
 30
0.0
 40
1.270000
 41
1.000000
  1
C47
  50
270.0
  7
ARIAL
 71
2
 72
 1
 11
41.7068
 21
52.6796
 31
0.0
100
AcDbText
 73
 2
  0
TEXT
  5
106
100
AcDbEntity
  8
ASSEMBLY_REF_DES_BTM
100
AcDbText
 10
44.8056
 20
51.04003
 30
0.0
 40
1.270000
 41
1.000000
  1
C48
  50
270.0
  7
ARIAL
 71
2
 72
 1
 11
45.466
 21
52.705
 31
0.0
100
AcDbText
 73
 2
  0
TEXT
  5
107
100
AcDbEntity
  8
ASSEMBLY_REF_DES_BTM
100
AcDbText
 10
26.0858
 20
43.80103
 30
0.0
 40
1.270000
 41
1.000000
  1
C50
  50
270.0
  7
ARIAL
 71
2
 72
 1
 11
26.7462
 21
45.466
 31
0.0
100
AcDbText
 73
 2
  0
TEXT
  5
108
100
AcDbEntity
  8
ASSEMBLY_REF_DES_BTM
100
AcDbText
 10
48.8696
 20
50.91303
 30
0.0
 40
1.270000
 41
1.000000
  1
C49
  50
270.0
  7
ARIAL
 71
2
 72
 1
 11
49.53
 21
52.578
 31
0.0
100
AcDbText
 73
 2
  0
TEXT
  5
109
100
AcDbEntity
  8
ASSEMBLY_REF_DES_BTM
100
AcDbText
 10
29.8958
 20
43.80103
 30
0.0
 40
1.270000
 41
1.000000
  1
C51
  50
270.0
  7
ARIAL
 71
2
 72
 1
 11
30.5562
 21
45.466
 31
0.0
100
AcDbText
 73
 2
  0
TEXT
  5
10A
100
AcDbEntity
  8
ASSEMBLY_REF_DES_BTM
100
AcDbText
 10
38.26776
 20
46.882729
 30
0.0
 40
0.508000
 41
1.000000
  1
R46
  50
270.0
  7
ARIAL
 71
2
 72
 1
 11
38.53192
 21
47.548717
 31
0.0
100
AcDbText
 73
 2
  0
TEXT
  5
10B
100
AcDbEntity
  8
ASSEMBLY_REF_DES_BTM
100
AcDbText
 10
38.63424
 20
45.692
 30
0.0
 40
0.640000
 41
1.000000
  1
C52
  7
ARIAL
 71
2
 72
 1
 11
37.7952
 21
46.0248
 31
0.0
100
AcDbText
 73
 2
  0
TEXT
  5
10C
100
AcDbEntity
  8
ASSEMBLY_REF_DES_BTM
100
AcDbText
 10
37.660451
 20
47.908016
 30
0.0
 40
0.381000
 41
1.000000
  1
C54
  7
ARIAL
 71
2
 72
 1
 11
37.16096
 21
48.106136
 31
0.0
100
AcDbText
 73
 2
  0
TEXT
  5
10D
100
AcDbEntity
  8
ASSEMBLY_REF_DES_BTM
100
AcDbText
 10
32.738
 20
44.22056
 30
0.0
 40
0.640000
 41
1.000000
  1
C55
  50
270.0
  7
ARIAL
 71
2
 72
 1
 11
33.0708
 21
45.0596
 31
0.0
100
AcDbText
 73
 2
  0
TEXT
  5
10E
100
AcDbEntity
  8
ASSEMBLY_REF_DES_BTM
100
AcDbText
 10
80.31
 20
56.4224
 30
0.0
 40
0.400000
 41
1.000000
  1
C56
  50
270.0
  7
ARIAL
 71
2
 72
 1
 11
80.518
 21
56.9468
 31
0.0
100
AcDbText
 73
 2
  0
LWPOLYLINE
  5
10F
100
AcDbEntity
  8
BOARD_ORIGIN
100
AcDbPolyline
 90
        2
 70
         0
 43
0.127
 10
-1.905
 20
0.0
 10
1.905
 20
0.0
  0
LWPOLYLINE
  5
110
100
AcDbEntity
  8
BOARD_ORIGIN
100
AcDbPolyline
 90
        2
 70
         0
 43
0.127
 10
0.0
 20
-1.905
 10
0.0
 20
1.905
  0
LWPOLYLINE
  5
111
100
AcDbEntity
  8
BOARD_ORIGIN
100
AcDbPolyline
 90
        2
 70
         1
 43
0.127
 10
-1.0
 20
0.0
 42
-1.000000
 10
1.0
 20
0.0
 42
-1.000000
  0
TEXT
  5
112
100
AcDbEntity
  8
BOARD_ORIGIN
100
AcDbText
 10
0.127
 20
0.127
 30
0.0
 40
1.000000
 41
1.000000
  1
B
  7
ARIAL
 11
0.127
 21
0.127
 31
0.0
100
AcDbText
 73
 1
  0
LWPOLYLINE
  5
113
100
AcDbEntity
  8
BOARD_OUTLINE
100
AcDbPolyline
 90
        40
 70
         1
 43
0.1
 10
37.479771
 20
49.71302
 10
0.003214
 20
49.71302
 10
0.003
 20
-0.005
 10
26.084
 20
-0.005
 10
26.083584
 20
5.693154
 42
-0.414213
 10
30.083585
 20
9.693153
 10
37.640301
 20
9.693153
 42
-0.414214
 10
41.640301
 20
5.693153
 10
41.640302
 20
-0.005205
 10
78.865243
 20
-0.005205
 10
78.865243
 20
6.501212
 42
-0.414214
 10
79.365243
 20
7.001212
 10
93.479769
 20
7.001212
 10
93.479769
 20
11.289794
 42
-0.414213
 10
93.97977
 20
11.789793
 10
97.479769
 20
11.789794
 10
97.48
 20
18.565
 10
97.479769
 20
18.564793
 10
94.579772
 20
18.564793
 42
-1.000002
 10
94.57977
 20
19.764793
 10
97.479769
 20
19.764793
 10
97.479769
 20
31.789794
 10
93.97977
 20
31.789794
 42
-0.414214
 10
93.47977
 20
32.289793
 10
93.479769
 20
35.288018
 42
-0.414214
 10
93.97977
 20
35.788019
 10
97.479769
 20
35.788019
 10
97.479769
 20
51.23802
 10
94.579772
 20
51.23802
 42
-1.000002
 10
94.57977
 20
52.438019
 10
97.479769
 20
52.438018
 10
97.479769
 20
55.63802
 10
93.97977
 20
55.63802
 42
-0.414214
 10
93.47977
 20
56.138019
 10
93.479769
 20
59.895565
 10
85.581453
 20
59.895565
 10
85.581453
 20
61.297395
 10
51.331834
 20
61.297395
 10
51.331834
 20
56.71302
 10
37.479771
 20
56.71302
  0
CIRCLE
  5
114
100
AcDbEntity
  8
MOUNTING_HOLE_PADS_LAYER_BOTTOM
100
AcDbCircle
 10
26.259
 20
39.52
 30
0.0
 40
3.0
  0
CIRCLE
  5
115
100
AcDbEntity
  8
MOUNTING_HOLE_PADS_LAYER_BOTTOM
100
AcDbCircle
 10
74.074
 20
7.405
 30
0.0
 40
3.0
  0
CIRCLE
  5
116
100
AcDbEntity
  8
MOUNTING_HOLE_PADS_LAYER_BOTTOM
100
AcDbCircle
 10
26.051
 20
24.11
 30
0.0
 40
2.5
  0
CIRCLE
  5
117
100
AcDbEntity
  8
MOUNTING_HOLES_LAYER_BOTTOM
100
AcDbCircle
 10
26.259
 20
39.52
 30
0.0
 40
1.6
  0
HATCH
  5
118
100
AcDbEntity
  8
MOUNTING_HOLES_LAYER_BOTTOM
100
AcDbHatch
 10
0.0
 20
0.0
 30
0.0
 210
0.0
 220
0.0
 230
1.0
  2
SOLID
 70
         1
 71
        1
 91
        1
  92
     1
  93
     1
 72
     2
 10
26.259
 20
39.52
  40
1.6
  50
     0.0
  51
     360.0
 73
     0
  97
     1
  330
    279
 75
     0
 76
     1
  98
     1
 10
0.0
 20
0.0
  0
CIRCLE
  5
119
100
AcDbEntity
  8
MOUNTING_HOLES_LAYER_BOTTOM
100
AcDbCircle
 10
74.074
 20
7.405
 30
0.0
 40
1.6
  0
HATCH
  5
11A
100
AcDbEntity
  8
MOUNTING_HOLES_LAYER_BOTTOM
100
AcDbHatch
 10
0.0
 20
0.0
 30
0.0
 210
0.0
 220
0.0
 230
1.0
  2
SOLID
 70
         1
 71
        1
 91
        1
  92
     1
  93
     1
 72
     2
 10
74.074
 20
7.405
  40
1.6
  50
     0.0
  51
     360.0
 73
     0
  97
     1
  330
    281
 75
     0
 76
     1
  98
     1
 10
0.0
 20
0.0
  0
CIRCLE
  5
11B
100
AcDbEntity
  8
MOUNTING_HOLES_LAYER_BOTTOM
100
AcDbCircle
 10
26.051
 20
24.11
 30
0.0
 40
2.0
  0
HATCH
  5
11C
100
AcDbEntity
  8
MOUNTING_HOLES_LAYER_BOTTOM
100
AcDbHatch
 10
0.0
 20
0.0
 30
0.0
 210
0.0
 220
0.0
 230
1.0
  2
SOLID
 70
         1
 71
        1
 91
        1
  92
     1
  93
     1
 72
     2
 10
26.051
 20
24.11
  40
2.0
  50
     0.0
  51
     360.0
 73
     0
  97
     1
  330
    283
 75
     0
 76
     1
  98
     1
 10
0.0
 20
0.0
  0
CIRCLE
  5
11D
100
AcDbEntity
  8
MOUNTING_HOLES_LAYER_BOTTOM
100
AcDbCircle
 10
84.25
 20
57.538
 30
0.0
 40
0.8
  0
HATCH
  5
11E
100
AcDbEntity
  8
MOUNTING_HOLES_LAYER_BOTTOM
100
AcDbHatch
 10
0.0
 20
0.0
 30
0.0
 210
0.0
 220
0.0
 230
1.0
  2
SOLID
 70
         1
 71
        1
 91
        1
  92
     1
  93
     1
 72
     2
 10
84.25
 20
57.538
  40
0.8
  50
     0.0
  51
     360.0
 73
     0
  97
     1
  330
    285
 75
     0
 76
     1
  98
     1
 10
0.0
 20
0.0
  0
CIRCLE
  5
11F
100
AcDbEntity
  8
MOUNTING_HOLES_LAYER_BOTTOM
100
AcDbCircle
 10
84.25
 20
37.538
 30
0.0
 40
0.55
  0
HATCH
  5
120
100
AcDbEntity
  8
MOUNTING_HOLES_LAYER_BOTTOM
100
AcDbHatch
 10
0.0
 20
0.0
 30
0.0
 210
0.0
 220
0.0
 230
1.0
  2
SOLID
 70
         1
 71
        1
 91
        1
  92
     1
  93
     1
 72
     2
 10
84.25
 20
37.538
  40
0.55
  50
     0.0
  51
     360.0
 73
     0
  97
     1
  330
    287
 75
     0
 76
     1
  98
     1
 10
0.0
 20
0.0
  0
CIRCLE
  5
121
100
AcDbEntity
  8
MOUNTING_HOLES_LAYER_BOTTOM
100
AcDbCircle
 10
-1.992
 20
30.968
 30
0.0
 40
1.6256
  0
HATCH
  5
122
100
AcDbEntity
  8
MOUNTING_HOLES_LAYER_BOTTOM
100
AcDbHatch
 10
0.0
 20
0.0
 30
0.0
 210
0.0
 220
0.0
 230
1.0
  2
SOLID
 70
         1
 71
        1
 91
        1
  92
     1
  93
     1
 72
     2
 10
-1.992
 20
30.968
  40
1.6256
  50
     0.0
  51
     360.0
 73
     0
  97
     1
  330
    289
 75
     0
 76
     1
  98
     1
 10
0.0
 20
0.0
  0
CIRCLE
  5
123
100
AcDbEntity
  8
MOUNTING_HOLES_LAYER_BOTTOM
100
AcDbCircle
 10
-1.992
 20
18.268
 30
0.0
 40
1.6256
  0
HATCH
  5
124
100
AcDbEntity
  8
MOUNTING_HOLES_LAYER_BOTTOM
100
AcDbHatch
 10
0.0
 20
0.0
 30
0.0
 210
0.0
 220
0.0
 230
1.0
  2
SOLID
 70
         1
 71
        1
 91
        1
  92
     1
  93
     1
 72
     2
 10
-1.992
 20
18.268
  40
1.6256
  50
     0.0
  51
     360.0
 73
     0
  97
     1
  330
    291
 75
     0
 76
     1
  98
     1
 10
0.0
 20
0.0
  0
CIRCLE
  5
125
100
AcDbEntity
  8
MOUNTING_HOLES_LAYER_BOTTOM
100
AcDbCircle
 10
84.301
 20
34.107
 30
0.0
 40
0.8
  0
HATCH
  5
126
100
AcDbEntity
  8
MOUNTING_HOLES_LAYER_BOTTOM
100
AcDbHatch
 10
0.0
 20
0.0
 30
0.0
 210
0.0
 220
0.0
 230
1.0
  2
SOLID
 70
         1
 71
        1
 91
        1
  92
     1
  93
     1
 72
     2
 10
84.301
 20
34.107
  40
0.8
  50
     0.0
  51
     360.0
 73
     0
  97
     1
  330
    293
 75
     0
 76
     1
  98
     1
 10
0.0
 20
0.0
  0
CIRCLE
  5
127
100
AcDbEntity
  8
MOUNTING_HOLES_LAYER_BOTTOM
100
AcDbCircle
 10
84.301
 20
14.107
 30
0.0
 40
0.55
  0
HATCH
  5
128
100
AcDbEntity
  8
MOUNTING_HOLES_LAYER_BOTTOM
100
AcDbHatch
 10
0.0
 20
0.0
 30
0.0
 210
0.0
 220
0.0
 230
1.0
  2
SOLID
 70
         1
 71
        1
 91
        1
  92
     1
  93
     1
 72
     2
 10
84.301
 20
14.107
  40
0.55
  50
     0.0
  51
     360.0
 73
     0
  97
     1
  330
    295
 75
     0
 76
     1
  98
     1
 10
0.0
 20
0.0
  0
CIRCLE
  5
129
100
AcDbEntity
  8
PART_HOLES_LAYER_BOTTOM
100
AcDbCircle
 10
6.138
 20
19.028
 30
0.0
 40
0.445
  0
HATCH
  5
12A
100
AcDbEntity
  8
PART_HOLES_LAYER_BOTTOM
100
AcDbHatch
 10
0.0
 20
0.0
 30
0.0
 210
0.0
 220
0.0
 230
1.0
  2
SOLID
 70
         1
 71
        1
 91
        1
  92
     1
  93
     1
 72
     2
 10
6.138
 20
19.028
  40
0.445
  50
     0.0
  51
     360.0
 73
     0
  97
     1
  330
    297
 75
     0
 76
     1
  98
     1
 10
0.0
 20
0.0
  0
CIRCLE
  5
12B
100
AcDbEntity
  8
PART_HOLES_LAYER_BOTTOM
100
AcDbCircle
 10
6.138
 20
30.208
 30
0.0
 40
0.445
  0
HATCH
  5
12C
100
AcDbEntity
  8
PART_HOLES_LAYER_BOTTOM
100
AcDbHatch
 10
0.0
 20
0.0
 30
0.0
 210
0.0
 220
0.0
 230
1.0
  2
SOLID
 70
         1
 71
        1
 91
        1
  92
     1
  93
     1
 72
     2
 10
6.138
 20
30.208
  40
0.445
  50
     0.0
  51
     360.0
 73
     0
  97
     1
  330
    299
 75
     0
 76
     1
  98
     1
 10
0.0
 20
0.0
  0
CIRCLE
  5
12D
100
AcDbEntity
  8
PART_HOLES_LAYER_BOTTOM
100
AcDbCircle
 10
4.608
 20
19.028
 30
0.0
 40
0.445
  0
HATCH
  5
12E
100
AcDbEntity
  8
PART_HOLES_LAYER_BOTTOM
100
AcDbHatch
 10
0.0
 20
0.0
 30
0.0
 210
0.0
 220
0.0
 230
1.0
  2
SOLID
 70
         1
 71
        1
 91
        1
  92
     1
  93
     1
 72
     2
 10
4.608
 20
19.028
  40
0.445
  50
     0.0
  51
     360.0
 73
     0
  97
     1
  330
    301
 75
     0
 76
     1
  98
     1
 10
0.0
 20
0.0
  0
CIRCLE
  5
12F
100
AcDbEntity
  8
PART_HOLES_LAYER_BOTTOM
100
AcDbCircle
 10
4.608
 20
30.208
 30
0.0
 40
0.445
  0
HATCH
  5
130
100
AcDbEntity
  8
PART_HOLES_LAYER_BOTTOM
100
AcDbHatch
 10
0.0
 20
0.0
 30
0.0
 210
0.0
 220
0.0
 230
1.0
  2
SOLID
 70
         1
 71
        1
 91
        1
  92
     1
  93
     1
 72
     2
 10
4.608
 20
30.208
  40
0.445
  50
     0.0
  51
     360.0
 73
     0
  97
     1
  330
    303
 75
     0
 76
     1
  98
     1
 10
0.0
 20
0.0
  0
CIRCLE
  5
131
100
AcDbEntity
  8
PART_HOLES_LAYER_BOTTOM
100
AcDbCircle
 10
-5.162
 20
16.518
 30
0.0
 40
0.8382
  0
HATCH
  5
132
100
AcDbEntity
  8
PART_HOLES_LAYER_BOTTOM
100
AcDbHatch
 10
0.0
 20
0.0
 30
0.0
 210
0.0
 220
0.0
 230
1.0
  2
SOLID
 70
         1
 71
        1
 91
        1
  92
     1
  93
     1
 72
     2
 10
-5.162
 20
16.518
  40
0.8382
  50
     0.0
  51
     360.0
 73
     0
  97
     1
  330
    305
 75
     0
 76
     1
  98
     1
 10
0.0
 20
0.0
  0
CIRCLE
  5
133
100
AcDbEntity
  8
PART_HOLES_LAYER_BOTTOM
100
AcDbCircle
 10
-5.162
 20
32.718
 30
0.0
 40
0.8382
  0
HATCH
  5
134
100
AcDbEntity
  8
PART_HOLES_LAYER_BOTTOM
100
AcDbHatch
 10
0.0
 20
0.0
 30
0.0
 210
0.0
 220
0.0
 230
1.0
  2
SOLID
 70
         1
 71
        1
 91
        1
  92
     1
  93
     1
 72
     2
 10
-5.162
 20
32.718
  40
0.8382
  50
     0.0
  51
     360.0
 73
     0
  97
     1
  330
    307
 75
     0
 76
     1
  98
     1
 10
0.0
 20
0.0
  0
CIRCLE
  5
135
100
AcDbEntity
  8
PART_HOLES_LAYER_BOTTOM
100
AcDbCircle
 10
18.328
 20
18.522
 30
0.0
 40
0.535
  0
HATCH
  5
136
100
AcDbEntity
  8
PART_HOLES_LAYER_BOTTOM
100
AcDbHatch
 10
0.0
 20
0.0
 30
0.0
 210
0.0
 220
0.0
 230
1.0
  2
SOLID
 70
         1
 71
        1
 91
        1
  92
     1
  93
     1
 72
     2
 10
18.328
 20
18.522
  40
0.535
  50
     0.0
  51
     360.0
 73
     0
  97
     1
  330
    309
 75
     0
 76
     1
  98
     1
 10
0.0
 20
0.0
  0
CIRCLE
  5
137
100
AcDbEntity
  8
PART_HOLES_LAYER_BOTTOM
100
AcDbCircle
 10
18.328
 20
21.062
 30
0.0
 40
0.535
  0
HATCH
  5
138
100
AcDbEntity
  8
PART_HOLES_LAYER_BOTTOM
100
AcDbHatch
 10
0.0
 20
0.0
 30
0.0
 210
0.0
 220
0.0
 230
1.0
  2
SOLID
 70
         1
 71
        1
 91
        1
  92
     1
  93
     1
 72
     2
 10
18.328
 20
21.062
  40
0.535
  50
     0.0
  51
     360.0
 73
     0
  97
     1
  330
    311
 75
     0
 76
     1
  98
     1
 10
0.0
 20
0.0
  0
CIRCLE
  5
139
100
AcDbEntity
  8
PART_HOLES_LAYER_BOTTOM
100
AcDbCircle
 10
18.328
 20
28.174
 30
0.0
 40
0.535
  0
HATCH
  5
13A
100
AcDbEntity
  8
PART_HOLES_LAYER_BOTTOM
100
AcDbHatch
 10
0.0
 20
0.0
 30
0.0
 210
0.0
 220
0.0
 230
1.0
  2
SOLID
 70
         1
 71
        1
 91
        1
  92
     1
  93
     1
 72
     2
 10
18.328
 20
28.174
  40
0.535
  50
     0.0
  51
     360.0
 73
     0
  97
     1
  330
    313
 75
     0
 76
     1
  98
     1
 10
0.0
 20
0.0
  0
CIRCLE
  5
13B
100
AcDbEntity
  8
PART_HOLES_LAYER_BOTTOM
100
AcDbCircle
 10
18.328
 20
30.714
 30
0.0
 40
0.535
  0
HATCH
  5
13C
100
AcDbEntity
  8
PART_HOLES_LAYER_BOTTOM
100
AcDbHatch
 10
0.0
 20
0.0
 30
0.0
 210
0.0
 220
0.0
 230
1.0
  2
SOLID
 70
         1
 71
        1
 91
        1
  92
     1
  93
     1
 72
     2
 10
18.328
 20
30.714
  40
0.535
  50
     0.0
  51
     360.0
 73
     0
  97
     1
  330
    315
 75
     0
 76
     1
  98
     1
 10
0.0
 20
0.0
  0
CIRCLE
  5
13D
100
AcDbEntity
  8
PART_HOLES_LAYER_BOTTOM
100
AcDbCircle
 10
13.248
 20
21.57
 30
0.0
 40
0.445
  0
HATCH
  5
13E
100
AcDbEntity
  8
PART_HOLES_LAYER_BOTTOM
100
AcDbHatch
 10
0.0
 20
0.0
 30
0.0
 210
0.0
 220
0.0
 230
1.0
  2
SOLID
 70
         1
 71
        1
 91
        1
  92
     1
  93
     1
 72
     2
 10
13.248
 20
21.57
  40
0.445
  50
     0.0
  51
     360.0
 73
     0
  97
     1
  330
    317
 75
     0
 76
     1
  98
     1
 10
0.0
 20
0.0
  0
CIRCLE
  5
13F
100
AcDbEntity
  8
PART_HOLES_LAYER_BOTTOM
100
AcDbCircle
 10
13.248
 20
23.602
 30
0.0
 40
0.445
  0
HATCH
  5
140
100
AcDbEntity
  8
PART_HOLES_LAYER_BOTTOM
100
AcDbHatch
 10
0.0
 20
0.0
 30
0.0
 210
0.0
 220
0.0
 230
1.0
  2
SOLID
 70
         1
 71
        1
 91
        1
  92
     1
  93
     1
 72
     2
 10
13.248
 20
23.602
  40
0.445
  50
     0.0
  51
     360.0
 73
     0
  97
     1
  330
    319
 75
     0
 76
     1
  98
     1
 10
0.0
 20
0.0
  0
CIRCLE
  5
141
100
AcDbEntity
  8
PART_HOLES_LAYER_BOTTOM
100
AcDbCircle
 10
13.248
 20
25.634
 30
0.0
 40
0.445
  0
HATCH
  5
142
100
AcDbEntity
  8
PART_HOLES_LAYER_BOTTOM
100
AcDbHatch
 10
0.0
 20
0.0
 30
0.0
 210
0.0
 220
0.0
 230
1.0
  2
SOLID
 70
         1
 71
        1
 91
        1
  92
     1
  93
     1
 72
     2
 10
13.248
 20
25.634
  40
0.445
  50
     0.0
  51
     360.0
 73
     0
  97
     1
  330
    321
 75
     0
 76
     1
  98
     1
 10
0.0
 20
0.0
  0
CIRCLE
  5
143
100
AcDbEntity
  8
PART_HOLES_LAYER_BOTTOM
100
AcDbCircle
 10
13.248
 20
27.666
 30
0.0
 40
0.445
  0
HATCH
  5
144
100
AcDbEntity
  8
PART_HOLES_LAYER_BOTTOM
100
AcDbHatch
 10
0.0
 20
0.0
 30
0.0
 210
0.0
 220
0.0
 230
1.0
  2
SOLID
 70
         1
 71
        1
 91
        1
  92
     1
  93
     1
 72
     2
 10
13.248
 20
27.666
  40
0.445
  50
     0.0
  51
     360.0
 73
     0
  97
     1
  330
    323
 75
     0
 76
     1
  98
     1
 10
0.0
 20
0.0
  0
CIRCLE
  5
145
100
AcDbEntity
  8
PART_HOLES_LAYER_BOTTOM
100
AcDbCircle
 10
13.248
 20
29.698
 30
0.0
 40
0.445
  0
HATCH
  5
146
100
AcDbEntity
  8
PART_HOLES_LAYER_BOTTOM
100
AcDbHatch
 10
0.0
 20
0.0
 30
0.0
 210
0.0
 220
0.0
 230
1.0
  2
SOLID
 70
         1
 71
        1
 91
        1
  92
     1
  93
     1
 72
     2
 10
13.248
 20
29.698
  40
0.445
  50
     0.0
  51
     360.0
 73
     0
  97
     1
  330
    325
 75
     0
 76
     1
  98
     1
 10
0.0
 20
0.0
  0
CIRCLE
  5
147
100
AcDbEntity
  8
PART_HOLES_LAYER_BOTTOM
100
AcDbCircle
 10
15.788
 20
18.522
 30
0.0
 40
0.445
  0
HATCH
  5
148
100
AcDbEntity
  8
PART_HOLES_LAYER_BOTTOM
100
AcDbHatch
 10
0.0
 20
0.0
 30
0.0
 210
0.0
 220
0.0
 230
1.0
  2
SOLID
 70
         1
 71
        1
 91
        1
  92
     1
  93
     1
 72
     2
 10
15.788
 20
18.522
  40
0.445
  50
     0.0
  51
     360.0
 73
     0
  97
     1
  330
    327
 75
     0
 76
     1
  98
     1
 10
0.0
 20
0.0
  0
CIRCLE
  5
149
100
AcDbEntity
  8
PART_HOLES_LAYER_BOTTOM
100
AcDbCircle
 10
15.788
 20
20.554
 30
0.0
 40
0.445
  0
HATCH
  5
14A
100
AcDbEntity
  8
PART_HOLES_LAYER_BOTTOM
100
AcDbHatch
 10
0.0
 20
0.0
 30
0.0
 210
0.0
 220
0.0
 230
1.0
  2
SOLID
 70
         1
 71
        1
 91
        1
  92
     1
  93
     1
 72
     2
 10
15.788
 20
20.554
  40
0.445
  50
     0.0
  51
     360.0
 73
     0
  97
     1
  330
    329
 75
     0
 76
     1
  98
     1
 10
0.0
 20
0.0
  0
CIRCLE
  5
14B
100
AcDbEntity
  8
PART_HOLES_LAYER_BOTTOM
100
AcDbCircle
 10
15.788
 20
22.586
 30
0.0
 40
0.445
  0
HATCH
  5
14C
100
AcDbEntity
  8
PART_HOLES_LAYER_BOTTOM
100
AcDbHatch
 10
0.0
 20
0.0
 30
0.0
 210
0.0
 220
0.0
 230
1.0
  2
SOLID
 70
         1
 71
        1
 91
        1
  92
     1
  93
     1
 72
     2
 10
15.788
 20
22.586
  40
0.445
  50
     0.0
  51
     360.0
 73
     0
  97
     1
  330
    331
 75
     0
 76
     1
  98
     1
 10
0.0
 20
0.0
  0
CIRCLE
  5
14D
100
AcDbEntity
  8
PART_HOLES_LAYER_BOTTOM
100
AcDbCircle
 10
15.788
 20
26.65
 30
0.0
 40
0.445
  0
HATCH
  5
14E
100
AcDbEntity
  8
PART_HOLES_LAYER_BOTTOM
100
AcDbHatch
 10
0.0
 20
0.0
 30
0.0
 210
0.0
 220
0.0
 230
1.0
  2
SOLID
 70
         1
 71
        1
 91
        1
  92
     1
  93
     1
 72
     2
 10
15.788
 20
26.65
  40
0.445
  50
     0.0
  51
     360.0
 73
     0
  97
     1
  330
    333
 75
     0
 76
     1
  98
     1
 10
0.0
 20
0.0
  0
CIRCLE
  5
14F
100
AcDbEntity
  8
PART_HOLES_LAYER_BOTTOM
100
AcDbCircle
 10
15.788
 20
28.682
 30
0.0
 40
0.445
  0
HATCH
  5
150
100
AcDbEntity
  8
PART_HOLES_LAYER_BOTTOM
100
AcDbHatch
 10
0.0
 20
0.0
 30
0.0
 210
0.0
 220
0.0
 230
1.0
  2
SOLID
 70
         1
 71
        1
 91
        1
  92
     1
  93
     1
 72
     2
 10
15.788
 20
28.682
  40
0.445
  50
     0.0
  51
     360.0
 73
     0
  97
     1
  330
    335
 75
     0
 76
     1
  98
     1
 10
0.0
 20
0.0
  0
CIRCLE
  5
151
100
AcDbEntity
  8
PART_HOLES_LAYER_BOTTOM
100
AcDbCircle
 10
13.248
 20
19.538
 30
0.0
 40
0.445
  0
HATCH
  5
152
100
AcDbEntity
  8
PART_HOLES_LAYER_BOTTOM
100
AcDbHatch
 10
0.0
 20
0.0
 30
0.0
 210
0.0
 220
0.0
 230
1.0
  2
SOLID
 70
         1
 71
        1
 91
        1
  92
     1
  93
     1
 72
     2
 10
13.248
 20
19.538
  40
0.445
  50
     0.0
  51
     360.0
 73
     0
  97
     1
  330
    337
 75
     0
 76
     1
  98
     1
 10
0.0
 20
0.0
  0
CIRCLE
  5
153
100
AcDbEntity
  8
PART_HOLES_LAYER_BOTTOM
100
AcDbCircle
 10
15.788
 20
30.714
 30
0.0
 40
0.445
  0
HATCH
  5
154
100
AcDbEntity
  8
PART_HOLES_LAYER_BOTTOM
100
AcDbHatch
 10
0.0
 20
0.0
 30
0.0
 210
0.0
 220
0.0
 230
1.0
  2
SOLID
 70
         1
 71
        1
 91
        1
  92
     1
  93
     1
 72
     2
 10
15.788
 20
30.714
  40
0.445
  50
     0.0
  51
     360.0
 73
     0
  97
     1
  330
    339
 75
     0
 76
     1
  98
     1
 10
0.0
 20
0.0
  0
CIRCLE
  5
155
100
AcDbEntity
  8
PART_HOLES_LAYER_BOTTOM
100
AcDbCircle
 10
38.227
 20
40.3352
 30
0.0
 40
0.25
  0
HATCH
  5
156
100
AcDbEntity
  8
PART_HOLES_LAYER_BOTTOM
100
AcDbHatch
 10
0.0
 20
0.0
 30
0.0
 210
0.0
 220
0.0
 230
1.0
  2
SOLID
 70
         1
 71
        1
 91
        1
  92
     1
  93
     1
 72
     2
 10
38.227
 20
40.3352
  40
0.25
  50
     0.0
  51
     360.0
 73
     0
  97
     1
  330
    341
 75
     0
 76
     1
  98
     1
 10
0.0
 20
0.0
  0
CIRCLE
  5
157
100
AcDbEntity
  8
PART_PADS_LAYER_BOTTOM
100
AcDbCircle
 10
6.138
 20
19.028
 30
0.0
 40
0.6985
  0
CIRCLE
  5
158
100
AcDbEntity
  8
PART_PADS_LAYER_BOTTOM
100
AcDbCircle
 10
6.138
 20
30.208
 30
0.0
 40
0.6985
  0
CIRCLE
  5
159
100
AcDbEntity
  8
PART_PADS_LAYER_BOTTOM
100
AcDbCircle
 10
4.608
 20
19.028
 30
0.0
 40
0.6985
  0
CIRCLE
  5
15A
100
AcDbEntity
  8
PART_PADS_LAYER_BOTTOM
100
AcDbCircle
 10
4.608
 20
30.208
 30
0.0
 40
0.6985
  0
CIRCLE
  5
15B
100
AcDbEntity
  8
PART_PADS_LAYER_BOTTOM
100
AcDbCircle
 10
-5.162
 20
16.518
 30
0.0
 40
1.27
  0
CIRCLE
  5
15C
100
AcDbEntity
  8
PART_PADS_LAYER_BOTTOM
100
AcDbCircle
 10
-5.162
 20
32.718
 30
0.0
 40
1.27
  0
CIRCLE
  5
15D
100
AcDbEntity
  8
PART_PADS_LAYER_BOTTOM
100
AcDbCircle
 10
18.328
 20
18.522
 30
0.0
 40
0.8255
  0
CIRCLE
  5
15E
100
AcDbEntity
  8
PART_PADS_LAYER_BOTTOM
100
AcDbCircle
 10
18.328
 20
21.062
 30
0.0
 40
0.8255
  0
CIRCLE
  5
15F
100
AcDbEntity
  8
PART_PADS_LAYER_BOTTOM
100
AcDbCircle
 10
18.328
 20
28.174
 30
0.0
 40
0.8255
  0
CIRCLE
  5
160
100
AcDbEntity
  8
PART_PADS_LAYER_BOTTOM
100
AcDbCircle
 10
18.328
 20
30.714
 30
0.0
 40
0.8255
  0
CIRCLE
  5
161
100
AcDbEntity
  8
PART_PADS_LAYER_BOTTOM
100
AcDbCircle
 10
13.248
 20
21.57
 30
0.0
 40
0.6985
  0
CIRCLE
  5
162
100
AcDbEntity
  8
PART_PADS_LAYER_BOTTOM
100
AcDbCircle
 10
13.248
 20
23.602
 30
0.0
 40
0.6985
  0
CIRCLE
  5
163
100
AcDbEntity
  8
PART_PADS_LAYER_BOTTOM
100
AcDbCircle
 10
13.248
 20
25.634
 30
0.0
 40
0.6985
  0
CIRCLE
  5
164
100
AcDbEntity
  8
PART_PADS_LAYER_BOTTOM
100
AcDbCircle
 10
13.248
 20
27.666
 30
0.0
 40
0.6985
  0
CIRCLE
  5
165
100
AcDbEntity
  8
PART_PADS_LAYER_BOTTOM
100
AcDbCircle
 10
13.248
 20
29.698
 30
0.0
 40
0.6985
  0
CIRCLE
  5
166
100
AcDbEntity
  8
PART_PADS_LAYER_BOTTOM
100
AcDbCircle
 10
15.788
 20
18.522
 30
0.0
 40
0.6985
  0
CIRCLE
  5
167
100
AcDbEntity
  8
PART_PADS_LAYER_BOTTOM
100
AcDbCircle
 10
15.788
 20
20.554
 30
0.0
 40
0.6985
  0
CIRCLE
  5
168
100
AcDbEntity
  8
PART_PADS_LAYER_BOTTOM
100
AcDbCircle
 10
15.788
 20
22.586
 30
0.0
 40
0.6985
  0
CIRCLE
  5
169
100
AcDbEntity
  8
PART_PADS_LAYER_BOTTOM
100
AcDbCircle
 10
15.788
 20
26.65
 30
0.0
 40
0.6985
  0
CIRCLE
  5
16A
100
AcDbEntity
  8
PART_PADS_LAYER_BOTTOM
100
AcDbCircle
 10
15.788
 20
28.682
 30
0.0
 40
0.6985
  0
CIRCLE
  5
16B
100
AcDbEntity
  8
PART_PADS_LAYER_BOTTOM
100
AcDbCircle
 10
13.248
 20
19.538
 30
0.0
 40
0.6985
  0
CIRCLE
  5
16C
100
AcDbEntity
  8
PART_PADS_LAYER_BOTTOM
100
AcDbCircle
 10
15.788
 20
30.714
 30
0.0
 40
0.6985
  0
CIRCLE
  5
16D
100
AcDbEntity
  8
PART_PADS_LAYER_BOTTOM
100
AcDbCircle
 10
38.227
 20
40.3352
 30
0.0
 40
0.4445
  0
LWPOLYLINE
  5
16E
100
AcDbEntity
  8
PART_PADS_SMD_BTM
100
AcDbPolyline
 90
        4
 70
         1
 43
0.0
 10
50.878
 20
4.3148
 10
50.878
 20
5.6148
 10
52.178
 20
5.6148
 10
52.178
 20
4.3148
  0
LWPOLYLINE
  5
16F
100
AcDbEntity
  8
PART_PADS_SMD_BTM
100
AcDbPolyline
 90
        4
 70
         1
 43
0.0
 10
50.878
 20
2.6148
 10
50.878
 20
3.9148
 10
52.178
 20
3.9148
 10
52.178
 20
2.6148
  0
LWPOLYLINE
  5
170
100
AcDbEntity
  8
PART_PADS_SMD_BTM
100
AcDbPolyline
 90
        4
 70
         1
 43
0.0
 10
52.978
 20
4.3148
 10
52.978
 20
5.6148
 10
54.278
 20
5.6148
 10
54.278
 20
4.3148
  0
LWPOLYLINE
  5
171
100
AcDbEntity
  8
PART_PADS_SMD_BTM
100
AcDbPolyline
 90
        4
 70
         1
 43
0.0
 10
52.978
 20
2.6148
 10
52.978
 20
3.9148
 10
54.278
 20
3.9148
 10
54.278
 20
2.6148
  0
LWPOLYLINE
  5
172
100
AcDbEntity
  8
PART_PADS_SMD_BTM
100
AcDbPolyline
 90
        4
 70
         1
 43
0.0
 10
14.3891
 20
37.8714
 10
14.3891
 20
38.8874
 10
15.9893
 20
38.8874
 10
15.9893
 20
37.8714
  0
LWPOLYLINE
  5
173
100
AcDbEntity
  8
PART_PADS_SMD_BTM
100
AcDbPolyline
 90
        4
 70
         1
 43
0.0
 10
14.3891
 20
40.9194
 10
14.3891
 20
41.9354
 10
15.9893
 20
41.9354
 10
15.9893
 20
40.9194
  0
LWPOLYLINE
  5
174
100
AcDbEntity
  8
PART_PADS_SMD_BTM
100
AcDbPolyline
 90
        4
 70
         1
 43
0.0
 10
12.3
 20
38.98
 10
12.3
 20
40.38
 10
13.1
 20
40.38
 10
13.1
 20
38.98
  0
LWPOLYLINE
  5
175
100
AcDbEntity
  8
PART_PADS_SMD_BTM
100
AcDbPolyline
 90
        4
 70
         1
 43
0.0
 10
9.76
 20
33.28
 10
9.76
 20
34.68
 10
10.56
 20
34.68
 10
10.56
 20
33.28
  0
LWPOLYLINE
  5
176
100
AcDbEntity
  8
PART_PADS_SMD_BTM
100
AcDbPolyline
 90
        4
 70
         1
 43
0.0
 10
12.3
 20
33.28
 10
12.3
 20
34.68
 10
13.1
 20
34.68
 10
13.1
 20
33.28
  0
LWPOLYLINE
  5
177
100
AcDbEntity
  8
PART_PADS_SMD_BTM
100
AcDbPolyline
 90
        4
 70
         1
 43
0.0
 10
9.76
 20
38.98
 10
9.76
 20
40.38
 10
10.56
 20
40.38
 10
10.56
 20
38.98
  0
LWPOLYLINE
  5
178
100
AcDbEntity
  8
PART_PADS_SMD_BTM
100
AcDbPolyline
 90
        4
 70
         1
 43
0.0
 10
19.646
 20
8.598
 10
19.646
 20
10.198
 10
20.446
 20
10.198
 10
20.446
 20
8.598
  0
LWPOLYLINE
  5
179
100
AcDbEntity
  8
PART_PADS_SMD_BTM
100
AcDbPolyline
 90
        4
 70
         1
 43
0.0
 10
18.396
 20
8.598
 10
18.396
 20
10.198
 10
19.196
 20
10.198
 10
19.196
 20
8.598
  0
LWPOLYLINE
  5
17A
100
AcDbEntity
  8
PART_PADS_SMD_BTM
100
AcDbPolyline
 90
        4
 70
         1
 43
0.0
 10
17.146
 20
8.598
 10
17.146
 20
10.198
 10
17.946
 20
10.198
 10
17.946
 20
8.598
  0
LWPOLYLINE
  5
17B
100
AcDbEntity
  8
PART_PADS_SMD_BTM
100
AcDbPolyline
 90
        4
 70
         1
 43
0.0
 10
21.546
 20
4.998
 10
21.546
 20
7.998
 10
23.646
 20
7.998
 10
23.646
 20
4.998
  0
LWPOLYLINE
  5
17C
100
AcDbEntity
  8
PART_PADS_SMD_BTM
100
AcDbPolyline
 90
        4
 70
         1
 43
0.0
 10
13.946
 20
4.998
 10
13.946
 20
7.998
 10
16.046
 20
7.998
 10
16.046
 20
4.998
  0
LWPOLYLINE
  5
17D
100
AcDbEntity
  8
PART_PADS_SMD_BTM
100
AcDbPolyline
 90
        4
 70
         1
 43
0.0
 10
43.0668
 20
46.0656
 10
43.0668
 20
49.3656
 10
47.9668
 20
49.3656
 10
47.9668
 20
46.0656
  0
LWPOLYLINE
  5
17E
100
AcDbEntity
  8
PART_PADS_SMD_BTM
100
AcDbPolyline
 90
        4
 70
         1
 43
0.0
 10
43.0668
 20
35.1656
 10
43.0668
 20
38.4656
 10
47.9668
 20
38.4656
 10
47.9668
 20
35.1656
  0
LWPOLYLINE
  5
17F
100
AcDbEntity
  8
PART_PADS_SMD_BTM
100
AcDbPolyline
 90
        4
 70
         1
 43
0.0
 10
95.48
 20
17.875
 10
95.48
 20
18.225
 10
96.98
 20
18.225
 10
96.98
 20
17.875
  0
LWPOLYLINE
  5
180
100
AcDbEntity
  8
PART_PADS_SMD_BTM
100
AcDbPolyline
 90
        4
 70
         1
 43
0.0
 10
95.48
 20
17.375
 10
95.48
 20
17.725
 10
96.98
 20
17.725
 10
96.98
 20
17.375
  0
LWPOLYLINE
  5
181
100
AcDbEntity
  8
PART_PADS_SMD_BTM
100
AcDbPolyline
 90
        4
 70
         1
 43
0.0
 10
95.48
 20
16.875
 10
95.48
 20
17.225
 10
96.98
 20
17.225
 10
96.98
 20
16.875
  0
LWPOLYLINE
  5
182
100
AcDbEntity
  8
PART_PADS_SMD_BTM
100
AcDbPolyline
 90
        4
 70
         1
 43
0.0
 10
95.48
 20
16.375
 10
95.48
 20
16.725
 10
96.98
 20
16.725
 10
96.98
 20
16.375
  0
LWPOLYLINE
  5
183
100
AcDbEntity
  8
PART_PADS_SMD_BTM
100
AcDbPolyline
 90
        4
 70
         1
 43
0.0
 10
95.48
 20
15.875
 10
95.48
 20
16.225
 10
96.98
 20
16.225
 10
96.98
 20
15.875
  0
LWPOLYLINE
  5
184
100
AcDbEntity
  8
PART_PADS_SMD_BTM
100
AcDbPolyline
 90
        4
 70
         1
 43
0.0
 10
95.48
 20
15.375
 10
95.48
 20
15.725
 10
96.98
 20
15.725
 10
96.98
 20
15.375
  0
LWPOLYLINE
  5
185
100
AcDbEntity
  8
PART_PADS_SMD_BTM
100
AcDbPolyline
 90
        4
 70
         1
 43
0.0
 10
95.48
 20
14.875
 10
95.48
 20
15.225
 10
96.98
 20
15.225
 10
96.98
 20
14.875
  0
LWPOLYLINE
  5
186
100
AcDbEntity
  8
PART_PADS_SMD_BTM
100
AcDbPolyline
 90
        4
 70
         1
 43
0.0
 10
95.48
 20
14.375
 10
95.48
 20
14.725
 10
96.98
 20
14.725
 10
96.98
 20
14.375
  0
LWPOLYLINE
  5
187
100
AcDbEntity
  8
PART_PADS_SMD_BTM
100
AcDbPolyline
 90
        4
 70
         1
 43
0.0
 10
95.48
 20
30.875
 10
95.48
 20
31.225
 10
96.98
 20
31.225
 10
96.98
 20
30.875
  0
LWPOLYLINE
  5
188
100
AcDbEntity
  8
PART_PADS_SMD_BTM
100
AcDbPolyline
 90
        4
 70
         1
 43
0.0
 10
95.48
 20
29.375
 10
95.48
 20
29.725
 10
96.98
 20
29.725
 10
96.98
 20
29.375
  0
LWPOLYLINE
  5
189
100
AcDbEntity
  8
PART_PADS_SMD_BTM
100
AcDbPolyline
 90
        4
 70
         1
 43
0.0
 10
95.48
 20
27.875
 10
95.48
 20
28.225
 10
96.98
 20
28.225
 10
96.98
 20
27.875
  0
LWPOLYLINE
  5
18A
100
AcDbEntity
  8
PART_PADS_SMD_BTM
100
AcDbPolyline
 90
        4
 70
         1
 43
0.0
 10
95.48
 20
26.375
 10
95.48
 20
26.725
 10
96.98
 20
26.725
 10
96.98
 20
26.375
  0
LWPOLYLINE
  5
18B
100
AcDbEntity
  8
PART_PADS_SMD_BTM
100
AcDbPolyline
 90
        4
 70
         1
 43
0.0
 10
95.48
 20
24.875
 10
95.48
 20
25.225
 10
96.98
 20
25.225
 10
96.98
 20
24.875
  0
LWPOLYLINE
  5
18C
100
AcDbEntity
  8
PART_PADS_SMD_BTM
100
AcDbPolyline
 90
        4
 70
         1
 43
0.0
 10
95.48
 20
23.375
 10
95.48
 20
23.725
 10
96.98
 20
23.725
 10
96.98
 20
23.375
  0
LWPOLYLINE
  5
18D
100
AcDbEntity
  8
PART_PADS_SMD_BTM
100
AcDbPolyline
 90
        4
 70
         1
 43
0.0
 10
95.48
 20
21.875
 10
95.48
 20
22.225
 10
96.98
 20
22.225
 10
96.98
 20
21.875
  0
LWPOLYLINE
  5
18E
100
AcDbEntity
  8
PART_PADS_SMD_BTM
100
AcDbPolyline
 90
        4
 70
         1
 43
0.0
 10
95.48
 20
20.375
 10
95.48
 20
20.725
 10
96.98
 20
20.725
 10
96.98
 20
20.375
  0
LWPOLYLINE
  5
18F
100
AcDbEntity
  8
PART_PADS_SMD_BTM
100
AcDbPolyline
 90
        4
 70
         1
 43
0.0
 10
95.48
 20
13.875
 10
95.48
 20
14.225
 10
96.98
 20
14.225
 10
96.98
 20
13.875
  0
LWPOLYLINE
  5
190
100
AcDbEntity
  8
PART_PADS_SMD_BTM
100
AcDbPolyline
 90
        4
 70
         1
 43
0.0
 10
95.48
 20
12.375
 10
95.48
 20
12.725
 10
96.98
 20
12.725
 10
96.98
 20
12.375
  0
LWPOLYLINE
  5
191
100
AcDbEntity
  8
PART_PADS_SMD_BTM
100
AcDbPolyline
 90
        4
 70
         1
 43
0.0
 10
95.48
 20
25.375
 10
95.48
 20
25.725
 10
96.98
 20
25.725
 10
96.98
 20
25.375
  0
LWPOLYLINE
  5
192
100
AcDbEntity
  8
PART_PADS_SMD_BTM
100
AcDbPolyline
 90
        4
 70
         1
 43
0.0
 10
95.48
 20
24.375
 10
95.48
 20
24.725
 10
96.98
 20
24.725
 10
96.98
 20
24.375
  0
LWPOLYLINE
  5
193
100
AcDbEntity
  8
PART_PADS_SMD_BTM
100
AcDbPolyline
 90
        4
 70
         1
 43
0.0
 10
95.48
 20
23.875
 10
95.48
 20
24.225
 10
96.98
 20
24.225
 10
96.98
 20
23.875
  0
LWPOLYLINE
  5
194
100
AcDbEntity
  8
PART_PADS_SMD_BTM
100
AcDbPolyline
 90
        4
 70
         1
 43
0.0
 10
95.48
 20
30.375
 10
95.48
 20
30.725
 10
96.98
 20
30.725
 10
96.98
 20
30.375
  0
LWPOLYLINE
  5
195
100
AcDbEntity
  8
PART_PADS_SMD_BTM
100
AcDbPolyline
 90
        4
 70
         1
 43
0.0
 10
95.48
 20
29.875
 10
95.48
 20
30.225
 10
96.98
 20
30.225
 10
96.98
 20
29.875
  0
LWPOLYLINE
  5
196
100
AcDbEntity
  8
PART_PADS_SMD_BTM
100
AcDbPolyline
 90
        4
 70
         1
 43
0.0
 10
95.48
 20
22.875
 10
95.48
 20
23.225
 10
96.98
 20
23.225
 10
96.98
 20
22.875
  0
LWPOLYLINE
  5
197
100
AcDbEntity
  8
PART_PADS_SMD_BTM
100
AcDbPolyline
 90
        4
 70
         1
 43
0.0
 10
95.48
 20
28.875
 10
95.48
 20
29.225
 10
96.98
 20
29.225
 10
96.98
 20
28.875
  0
LWPOLYLINE
  5
198
100
AcDbEntity
  8
PART_PADS_SMD_BTM
100
AcDbPolyline
 90
        4
 70
         1
 43
0.0
 10
95.48
 20
22.375
 10
95.48
 20
22.725
 10
96.98
 20
22.725
 10
96.98
 20
22.375
  0
LWPOLYLINE
  5
199
100
AcDbEntity
  8
PART_PADS_SMD_BTM
100
AcDbPolyline
 90
        4
 70
         1
 43
0.0
 10
95.48
 20
28.375
 10
95.48
 20
28.725
 10
96.98
 20
28.725
 10
96.98
 20
28.375
  0
LWPOLYLINE
  5
19A
100
AcDbEntity
  8
PART_PADS_SMD_BTM
100
AcDbPolyline
 90
        4
 70
         1
 43
0.0
 10
95.48
 20
21.375
 10
95.48
 20
21.725
 10
96.98
 20
21.725
 10
96.98
 20
21.375
  0
LWPOLYLINE
  5
19B
100
AcDbEntity
  8
PART_PADS_SMD_BTM
100
AcDbPolyline
 90
        4
 70
         1
 43
0.0
 10
95.48
 20
27.375
 10
95.48
 20
27.725
 10
96.98
 20
27.725
 10
96.98
 20
27.375
  0
LWPOLYLINE
  5
19C
100
AcDbEntity
  8
PART_PADS_SMD_BTM
100
AcDbPolyline
 90
        4
 70
         1
 43
0.0
 10
95.48
 20
20.875
 10
95.48
 20
21.225
 10
96.98
 20
21.225
 10
96.98
 20
20.875
  0
LWPOLYLINE
  5
19D
100
AcDbEntity
  8
PART_PADS_SMD_BTM
100
AcDbPolyline
 90
        4
 70
         1
 43
0.0
 10
95.48
 20
26.875
 10
95.48
 20
27.225
 10
96.98
 20
27.225
 10
96.98
 20
26.875
  0
LWPOLYLINE
  5
19E
100
AcDbEntity
  8
PART_PADS_SMD_BTM
100
AcDbPolyline
 90
        4
 70
         1
 43
0.0
 10
95.48
 20
25.875
 10
95.48
 20
26.225
 10
96.98
 20
26.225
 10
96.98
 20
25.875
  0
LWPOLYLINE
  5
19F
100
AcDbEntity
  8
PART_PADS_SMD_BTM
100
AcDbPolyline
 90
        4
 70
         1
 43
0.0
 10
95.48
 20
13.375
 10
95.48
 20
13.725
 10
96.98
 20
13.725
 10
96.98
 20
13.375
  0
LWPOLYLINE
  5
1A0
100
AcDbEntity
  8
PART_PADS_SMD_BTM
100
AcDbPolyline
 90
        4
 70
         1
 43
0.0
 10
95.48
 20
12.875
 10
95.48
 20
13.225
 10
96.98
 20
13.225
 10
96.98
 20
12.875
  0
LWPOLYLINE
  5
1A1
100
AcDbEntity
  8
PART_PADS_SMD_BTM
100
AcDbPolyline
 90
        4
 70
         1
 43
0.0
 10
10.468
 20
42.091
 10
10.468
 20
43.741
 10
12.138
 20
43.741
 10
12.138
 20
42.091
  0
LWPOLYLINE
  5
1A2
100
AcDbEntity
  8
PART_PADS_SMD_BTM
100
AcDbPolyline
 90
        4
 70
         1
 43
0.0
 10
10.468
 20
45.921
 10
10.468
 20
47.571
 10
12.138
 20
47.571
 10
12.138
 20
45.921
  0
CIRCLE
  5
1A3
100
AcDbEntity
  8
PART_PADS_SMD_BTM
100
AcDbCircle
 10
6.051
 20
24.11
 30
0.0
 40
2.75
  0
LWPOLYLINE
  5
1A4
100
AcDbEntity
  8
PART_PADS_SMD_BTM
100
AcDbPolyline
 90
        4
 70
         1
 43
0.0
 10
88.7
 20
53.138
 10
88.7
 20
53.438
 10
90.25
 20
53.438
 10
90.25
 20
53.138
  0
LWPOLYLINE
  5
1A5
100
AcDbEntity
  8
PART_PADS_SMD_BTM
100
AcDbPolyline
 90
        4
 70
         1
 43
0.0
 10
88.7
 20
53.638
 10
88.7
 20
53.938
 10
90.25
 20
53.938
 10
90.25
 20
53.638
  0
LWPOLYLINE
  5
1A6
100
AcDbEntity
  8
PART_PADS_SMD_BTM
100
AcDbPolyline
 90
        4
 70
         1
 43
0.0
 10
88.7
 20
54.138
 10
88.7
 20
54.438
 10
90.25
 20
54.438
 10
90.25
 20
54.138
  0
LWPOLYLINE
  5
1A7
100
AcDbEntity
  8
PART_PADS_SMD_BTM
100
AcDbPolyline
 90
        4
 70
         1
 43
0.0
 10
88.7
 20
54.638
 10
88.7
 20
54.938
 10
90.25
 20
54.938
 10
90.25
 20
54.638
  0
LWPOLYLINE
  5
1A8
100
AcDbEntity
  8
PART_PADS_SMD_BTM
100
AcDbPolyline
 90
        4
 70
         1
 43
0.0
 10
88.7
 20
55.138
 10
88.7
 20
55.438
 10
90.25
 20
55.438
 10
90.25
 20
55.138
  0
LWPOLYLINE
  5
1A9
100
AcDbEntity
  8
PART_PADS_SMD_BTM
100
AcDbPolyline
 90
        4
 70
         1
 43
0.0
 10
88.7
 20
55.638
 10
88.7
 20
55.938
 10
90.25
 20
55.938
 10
90.25
 20
55.638
  0
LWPOLYLINE
  5
1AA
100
AcDbEntity
  8
PART_PADS_SMD_BTM
100
AcDbPolyline
 90
        4
 70
         1
 43
0.0
 10
88.7
 20
56.138
 10
88.7
 20
56.438
 10
90.25
 20
56.438
 10
90.25
 20
56.138
  0
LWPOLYLINE
  5
1AB
100
AcDbEntity
  8
PART_PADS_SMD_BTM
100
AcDbPolyline
 90
        4
 70
         1
 43
0.0
 10
88.7
 20
56.638
 10
88.7
 20
56.938
 10
90.25
 20
56.938
 10
90.25
 20
56.638
  0
LWPOLYLINE
  5
1AC
100
AcDbEntity
  8
PART_PADS_SMD_BTM
100
AcDbPolyline
 90
        4
 70
         1
 43
0.0
 10
87.375
 20
57.288
 10
87.375
 20
58.488
 10
90.125
 20
58.488
 10
90.125
 20
57.288
  0
LWPOLYLINE
  5
1AD
100
AcDbEntity
  8
PART_PADS_SMD_BTM
100
AcDbPolyline
 90
        4
 70
         1
 43
0.0
 10
81.25
 20
45.888
 10
81.25
 20
46.188
 10
82.8
 20
46.188
 10
82.8
 20
45.888
  0
LWPOLYLINE
  5
1AE
100
AcDbEntity
  8
PART_PADS_SMD_BTM
100
AcDbPolyline
 90
        4
 70
         1
 43
0.0
 10
81.25
 20
46.388
 10
81.25
 20
46.688
 10
82.8
 20
46.688
 10
82.8
 20
46.388
  0
LWPOLYLINE
  5
1AF
100
AcDbEntity
  8
PART_PADS_SMD_BTM
100
AcDbPolyline
 90
        4
 70
         1
 43
0.0
 10
81.25
 20
46.888
 10
81.25
 20
47.188
 10
82.8
 20
47.188
 10
82.8
 20
46.888
  0
LWPOLYLINE
  5
1B0
100
AcDbEntity
  8
PART_PADS_SMD_BTM
100
AcDbPolyline
 90
        4
 70
         1
 43
0.0
 10
81.25
 20
47.388
 10
81.25
 20
47.688
 10
82.8
 20
47.688
 10
82.8
 20
47.388
  0
LWPOLYLINE
  5
1B1
100
AcDbEntity
  8
PART_PADS_SMD_BTM
100
AcDbPolyline
 90
        4
 70
         1
 43
0.0
 10
81.25
 20
47.888
 10
81.25
 20
48.188
 10
82.8
 20
48.188
 10
82.8
 20
47.888
  0
LWPOLYLINE
  5
1B2
100
AcDbEntity
  8
PART_PADS_SMD_BTM
100
AcDbPolyline
 90
        4
 70
         1
 43
0.0
 10
81.25
 20
48.388
 10
81.25
 20
48.688
 10
82.8
 20
48.688
 10
82.8
 20
48.388
  0
LWPOLYLINE
  5
1B3
100
AcDbEntity
  8
PART_PADS_SMD_BTM
100
AcDbPolyline
 90
        4
 70
         1
 43
0.0
 10
81.25
 20
39.388
 10
81.25
 20
39.688
 10
82.8
 20
39.688
 10
82.8
 20
39.388
  0
LWPOLYLINE
  5
1B4
100
AcDbEntity
  8
PART_PADS_SMD_BTM
100
AcDbPolyline
 90
        4
 70
         1
 43
0.0
 10
81.25
 20
39.888
 10
81.25
 20
40.188
 10
82.8
 20
40.188
 10
82.8
 20
39.888
  0
LWPOLYLINE
  5
1B5
100
AcDbEntity
  8
PART_PADS_SMD_BTM
100
AcDbPolyline
 90
        4
 70
         1
 43
0.0
 10
81.25
 20
40.388
 10
81.25
 20
40.688
 10
82.8
 20
40.688
 10
82.8
 20
40.388
  0
LWPOLYLINE
  5
1B6
100
AcDbEntity
  8
PART_PADS_SMD_BTM
100
AcDbPolyline
 90
        4
 70
         1
 43
0.0
 10
81.25
 20
40.888
 10
81.25
 20
41.188
 10
82.8
 20
41.188
 10
82.8
 20
40.888
  0
LWPOLYLINE
  5
1B7
100
AcDbEntity
  8
PART_PADS_SMD_BTM
100
AcDbPolyline
 90
        4
 70
         1
 43
0.0
 10
81.25
 20
41.388
 10
81.25
 20
41.688
 10
82.8
 20
41.688
 10
82.8
 20
41.388
  0
LWPOLYLINE
  5
1B8
100
AcDbEntity
  8
PART_PADS_SMD_BTM
100
AcDbPolyline
 90
        4
 70
         1
 43
0.0
 10
81.25
 20
41.888
 10
81.25
 20
42.188
 10
82.8
 20
42.188
 10
82.8
 20
41.888
  0
LWPOLYLINE
  5
1B9
100
AcDbEntity
  8
PART_PADS_SMD_BTM
100
AcDbPolyline
 90
        4
 70
         1
 43
0.0
 10
81.25
 20
42.388
 10
81.25
 20
42.688
 10
82.8
 20
42.688
 10
82.8
 20
42.388
  0
LWPOLYLINE
  5
1BA
100
AcDbEntity
  8
PART_PADS_SMD_BTM
100
AcDbPolyline
 90
        4
 70
         1
 43
0.0
 10
81.25
 20
48.888
 10
81.25
 20
49.188
 10
82.8
 20
49.188
 10
82.8
 20
48.888
  0
LWPOLYLINE
  5
1BB
100
AcDbEntity
  8
PART_PADS_SMD_BTM
100
AcDbPolyline
 90
        4
 70
         1
 43
0.0
 10
81.25
 20
49.388
 10
81.25
 20
49.688
 10
82.8
 20
49.688
 10
82.8
 20
49.388
  0
LWPOLYLINE
  5
1BC
100
AcDbEntity
  8
PART_PADS_SMD_BTM
100
AcDbPolyline
 90
        4
 70
         1
 43
0.0
 10
81.25
 20
49.888
 10
81.25
 20
50.188
 10
82.8
 20
50.188
 10
82.8
 20
49.888
  0
LWPOLYLINE
  5
1BD
100
AcDbEntity
  8
PART_PADS_SMD_BTM
100
AcDbPolyline
 90
        4
 70
         1
 43
0.0
 10
81.25
 20
50.388
 10
81.25
 20
50.688
 10
82.8
 20
50.688
 10
82.8
 20
50.388
  0
LWPOLYLINE
  5
1BE
100
AcDbEntity
  8
PART_PADS_SMD_BTM
100
AcDbPolyline
 90
        4
 70
         1
 43
0.0
 10
81.25
 20
50.888
 10
81.25
 20
51.188
 10
82.8
 20
51.188
 10
82.8
 20
50.888
  0
LWPOLYLINE
  5
1BF
100
AcDbEntity
  8
PART_PADS_SMD_BTM
100
AcDbPolyline
 90
        4
 70
         1
 43
0.0
 10
81.25
 20
51.388
 10
81.25
 20
51.688
 10
82.8
 20
51.688
 10
82.8
 20
51.388
  0
LWPOLYLINE
  5
1C0
100
AcDbEntity
  8
PART_PADS_SMD_BTM
100
AcDbPolyline
 90
        4
 70
         1
 43
0.0
 10
81.25
 20
51.888
 10
81.25
 20
52.188
 10
82.8
 20
52.188
 10
82.8
 20
51.888
  0
LWPOLYLINE
  5
1C1
100
AcDbEntity
  8
PART_PADS_SMD_BTM
100
AcDbPolyline
 90
        4
 70
         1
 43
0.0
 10
81.25
 20
52.388
 10
81.25
 20
52.688
 10
82.8
 20
52.688
 10
82.8
 20
52.388
  0
LWPOLYLINE
  5
1C2
100
AcDbEntity
  8
PART_PADS_SMD_BTM
100
AcDbPolyline
 90
        4
 70
         1
 43
0.0
 10
81.25
 20
52.888
 10
81.25
 20
53.188
 10
82.8
 20
53.188
 10
82.8
 20
52.888
  0
LWPOLYLINE
  5
1C3
100
AcDbEntity
  8
PART_PADS_SMD_BTM
100
AcDbPolyline
 90
        4
 70
         1
 43
0.0
 10
81.25
 20
53.388
 10
81.25
 20
53.688
 10
82.8
 20
53.688
 10
82.8
 20
53.388
  0
LWPOLYLINE
  5
1C4
100
AcDbEntity
  8
PART_PADS_SMD_BTM
100
AcDbPolyline
 90
        4
 70
         1
 43
0.0
 10
81.25
 20
53.888
 10
81.25
 20
54.188
 10
82.8
 20
54.188
 10
82.8
 20
53.888
  0
LWPOLYLINE
  5
1C5
100
AcDbEntity
  8
PART_PADS_SMD_BTM
100
AcDbPolyline
 90
        4
 70
         1
 43
0.0
 10
81.25
 20
54.388
 10
81.25
 20
54.688
 10
82.8
 20
54.688
 10
82.8
 20
54.388
  0
LWPOLYLINE
  5
1C6
100
AcDbEntity
  8
PART_PADS_SMD_BTM
100
AcDbPolyline
 90
        4
 70
         1
 43
0.0
 10
81.25
 20
54.888
 10
81.25
 20
55.188
 10
82.8
 20
55.188
 10
82.8
 20
54.888
  0
LWPOLYLINE
  5
1C7
100
AcDbEntity
  8
PART_PADS_SMD_BTM
100
AcDbPolyline
 90
        4
 70
         1
 43
0.0
 10
81.25
 20
55.388
 10
81.25
 20
55.688
 10
82.8
 20
55.688
 10
82.8
 20
55.388
  0
LWPOLYLINE
  5
1C8
100
AcDbEntity
  8
PART_PADS_SMD_BTM
100
AcDbPolyline
 90
        4
 70
         1
 43
0.0
 10
81.25
 20
55.888
 10
81.25
 20
56.188
 10
82.8
 20
56.188
 10
82.8
 20
55.888
  0
LWPOLYLINE
  5
1C9
100
AcDbEntity
  8
PART_PADS_SMD_BTM
100
AcDbPolyline
 90
        4
 70
         1
 43
0.0
 10
81.25
 20
56.388
 10
81.25
 20
56.688
 10
82.8
 20
56.688
 10
82.8
 20
56.388
  0
LWPOLYLINE
  5
1CA
100
AcDbEntity
  8
PART_PADS_SMD_BTM
100
AcDbPolyline
 90
        4
 70
         1
 43
0.0
 10
81.25
 20
42.888
 10
81.25
 20
43.188
 10
82.8
 20
43.188
 10
82.8
 20
42.888
  0
LWPOLYLINE
  5
1CB
100
AcDbEntity
  8
PART_PADS_SMD_BTM
100
AcDbPolyline
 90
        4
 70
         1
 43
0.0
 10
81.25
 20
43.388
 10
81.25
 20
43.688
 10
82.8
 20
43.688
 10
82.8
 20
43.388
  0
LWPOLYLINE
  5
1CC
100
AcDbEntity
  8
PART_PADS_SMD_BTM
100
AcDbPolyline
 90
        4
 70
         1
 43
0.0
 10
81.25
 20
38.888
 10
81.25
 20
39.188
 10
82.8
 20
39.188
 10
82.8
 20
38.888
  0
LWPOLYLINE
  5
1CD
100
AcDbEntity
  8
PART_PADS_SMD_BTM
100
AcDbPolyline
 90
        4
 70
         1
 43
0.0
 10
81.25
 20
38.388
 10
81.25
 20
38.688
 10
82.8
 20
38.688
 10
82.8
 20
38.388
  0
LWPOLYLINE
  5
1CE
100
AcDbEntity
  8
PART_PADS_SMD_BTM
100
AcDbPolyline
 90
        4
 70
         1
 43
0.0
 10
88.7
 20
52.638
 10
88.7
 20
52.938
 10
90.25
 20
52.938
 10
90.25
 20
52.638
  0
LWPOLYLINE
  5
1CF
100
AcDbEntity
  8
PART_PADS_SMD_BTM
100
AcDbPolyline
 90
        4
 70
         1
 43
0.0
 10
88.7
 20
52.138
 10
88.7
 20
52.438
 10
90.25
 20
52.438
 10
90.25
 20
52.138
  0
LWPOLYLINE
  5
1D0
100
AcDbEntity
  8
PART_PADS_SMD_BTM
100
AcDbPolyline
 90
        4
 70
         1
 43
0.0
 10
88.7
 20
51.138
 10
88.7
 20
51.438
 10
90.25
 20
51.438
 10
90.25
 20
51.138
  0
LWPOLYLINE
  5
1D1
100
AcDbEntity
  8
PART_PADS_SMD_BTM
100
AcDbPolyline
 90
        4
 70
         1
 43
0.0
 10
88.7
 20
51.638
 10
88.7
 20
51.938
 10
90.25
 20
51.938
 10
90.25
 20
51.638
  0
LWPOLYLINE
  5
1D2
100
AcDbEntity
  8
PART_PADS_SMD_BTM
100
AcDbPolyline
 90
        4
 70
         1
 43
0.0
 10
87.375
 20
36.588
 10
87.375
 20
37.788
 10
90.125
 20
37.788
 10
90.125
 20
36.588
  0
LWPOLYLINE
  5
1D3
100
AcDbEntity
  8
PART_PADS_SMD_BTM
100
AcDbPolyline
 90
        4
 70
         1
 43
0.0
 10
88.7
 20
41.138
 10
88.7
 20
41.438
 10
90.25
 20
41.438
 10
90.25
 20
41.138
  0
LWPOLYLINE
  5
1D4
100
AcDbEntity
  8
PART_PADS_SMD_BTM
100
AcDbPolyline
 90
        4
 70
         1
 43
0.0
 10
88.7
 20
41.638
 10
88.7
 20
41.938
 10
90.25
 20
41.938
 10
90.25
 20
41.638
  0
LWPOLYLINE
  5
1D5
100
AcDbEntity
  8
PART_PADS_SMD_BTM
100
AcDbPolyline
 90
        4
 70
         1
 43
0.0
 10
88.7
 20
42.138
 10
88.7
 20
42.438
 10
90.25
 20
42.438
 10
90.25
 20
42.138
  0
LWPOLYLINE
  5
1D6
100
AcDbEntity
  8
PART_PADS_SMD_BTM
100
AcDbPolyline
 90
        4
 70
         1
 43
0.0
 10
88.7
 20
42.638
 10
88.7
 20
42.938
 10
90.25
 20
42.938
 10
90.25
 20
42.638
  0
LWPOLYLINE
  5
1D7
100
AcDbEntity
  8
PART_PADS_SMD_BTM
100
AcDbPolyline
 90
        4
 70
         1
 43
0.0
 10
88.7
 20
43.138
 10
88.7
 20
43.438
 10
90.25
 20
43.438
 10
90.25
 20
43.138
  0
LWPOLYLINE
  5
1D8
100
AcDbEntity
  8
PART_PADS_SMD_BTM
100
AcDbPolyline
 90
        4
 70
         1
 43
0.0
 10
88.7
 20
43.638
 10
88.7
 20
43.938
 10
90.25
 20
43.938
 10
90.25
 20
43.638
  0
LWPOLYLINE
  5
1D9
100
AcDbEntity
  8
PART_PADS_SMD_BTM
100
AcDbPolyline
 90
        4
 70
         1
 43
0.0
 10
88.7
 20
40.638
 10
88.7
 20
40.938
 10
90.25
 20
40.938
 10
90.25
 20
40.638
  0
LWPOLYLINE
  5
1DA
100
AcDbEntity
  8
PART_PADS_SMD_BTM
100
AcDbPolyline
 90
        4
 70
         1
 43
0.0
 10
88.7
 20
40.138
 10
88.7
 20
40.438
 10
90.25
 20
40.438
 10
90.25
 20
40.138
  0
LWPOLYLINE
  5
1DB
100
AcDbEntity
  8
PART_PADS_SMD_BTM
100
AcDbPolyline
 90
        4
 70
         1
 43
0.0
 10
88.7
 20
50.638
 10
88.7
 20
50.938
 10
90.25
 20
50.938
 10
90.25
 20
50.638
  0
LWPOLYLINE
  5
1DC
100
AcDbEntity
  8
PART_PADS_SMD_BTM
100
AcDbPolyline
 90
        4
 70
         1
 43
0.0
 10
88.7
 20
47.638
 10
88.7
 20
47.938
 10
90.25
 20
47.938
 10
90.25
 20
47.638
  0
LWPOLYLINE
  5
1DD
100
AcDbEntity
  8
PART_PADS_SMD_BTM
100
AcDbPolyline
 90
        4
 70
         1
 43
0.0
 10
88.7
 20
46.138
 10
88.7
 20
46.438
 10
90.25
 20
46.438
 10
90.25
 20
46.138
  0
LWPOLYLINE
  5
1DE
100
AcDbEntity
  8
PART_PADS_SMD_BTM
100
AcDbPolyline
 90
        4
 70
         1
 43
0.0
 10
88.7
 20
49.138
 10
88.7
 20
49.438
 10
90.25
 20
49.438
 10
90.25
 20
49.138
  0
LWPOLYLINE
  5
1DF
100
AcDbEntity
  8
PART_PADS_SMD_BTM
100
AcDbPolyline
 90
        4
 70
         1
 43
0.0
 10
88.7
 20
39.638
 10
88.7
 20
39.938
 10
90.25
 20
39.938
 10
90.25
 20
39.638
  0
LWPOLYLINE
  5
1E0
100
AcDbEntity
  8
PART_PADS_SMD_BTM
100
AcDbPolyline
 90
        4
 70
         1
 43
0.0
 10
88.7
 20
38.138
 10
88.7
 20
38.438
 10
90.25
 20
38.438
 10
90.25
 20
38.138
  0
LWPOLYLINE
  5
1E1
100
AcDbEntity
  8
PART_PADS_SMD_BTM
100
AcDbPolyline
 90
        4
 70
         1
 43
0.0
 10
88.7
 20
50.138
 10
88.7
 20
50.438
 10
90.25
 20
50.438
 10
90.25
 20
50.138
  0
LWPOLYLINE
  5
1E2
100
AcDbEntity
  8
PART_PADS_SMD_BTM
100
AcDbPolyline
 90
        4
 70
         1
 43
0.0
 10
88.7
 20
49.638
 10
88.7
 20
49.938
 10
90.25
 20
49.938
 10
90.25
 20
49.638
  0
LWPOLYLINE
  5
1E3
100
AcDbEntity
  8
PART_PADS_SMD_BTM
100
AcDbPolyline
 90
        4
 70
         1
 43
0.0
 10
88.7
 20
48.638
 10
88.7
 20
48.938
 10
90.25
 20
48.938
 10
90.25
 20
48.638
  0
LWPOLYLINE
  5
1E4
100
AcDbEntity
  8
PART_PADS_SMD_BTM
100
AcDbPolyline
 90
        4
 70
         1
 43
0.0
 10
88.7
 20
48.138
 10
88.7
 20
48.438
 10
90.25
 20
48.438
 10
90.25
 20
48.138
  0
LWPOLYLINE
  5
1E5
100
AcDbEntity
  8
PART_PADS_SMD_BTM
100
AcDbPolyline
 90
        4
 70
         1
 43
0.0
 10
88.7
 20
47.138
 10
88.7
 20
47.438
 10
90.25
 20
47.438
 10
90.25
 20
47.138
  0
LWPOLYLINE
  5
1E6
100
AcDbEntity
  8
PART_PADS_SMD_BTM
100
AcDbPolyline
 90
        4
 70
         1
 43
0.0
 10
88.7
 20
46.638
 10
88.7
 20
46.938
 10
90.25
 20
46.938
 10
90.25
 20
46.638
  0
LWPOLYLINE
  5
1E7
100
AcDbEntity
  8
PART_PADS_SMD_BTM
100
AcDbPolyline
 90
        4
 70
         1
 43
0.0
 10
88.7
 20
39.138
 10
88.7
 20
39.438
 10
90.25
 20
39.438
 10
90.25
 20
39.138
  0
LWPOLYLINE
  5
1E8
100
AcDbEntity
  8
PART_PADS_SMD_BTM
100
AcDbPolyline
 90
        4
 70
         1
 43
0.0
 10
88.7
 20
38.638
 10
88.7
 20
38.938
 10
90.25
 20
38.938
 10
90.25
 20
38.638
  0
LWPOLYLINE
  5
1E9
100
AcDbEntity
  8
PART_PADS_SMD_BTM
100
AcDbPolyline
 90
        4
 70
         1
 43
0.0
 10
62.828
 20
6.095
 10
62.528
 20
6.095
 10
62.528
 20
6.645
 42
-1.000000
 10
62.828
 20
6.645
  0
LWPOLYLINE
  5
1EA
100
AcDbEntity
  8
PART_PADS_SMD_BTM
100
AcDbPolyline
 90
        4
 70
         1
 43
0.0
 10
63.628
 20
7.195
 10
63.628
 20
6.895
 10
63.078
 20
6.895
 42
-1.000000
 10
63.078
 20
7.195
  0
LWPOLYLINE
  5
1EB
100
AcDbEntity
  8
PART_PADS_SMD_BTM
100
AcDbPolyline
 90
        4
 70
         1
 43
0.0
 10
61.028
 20
15.495
 10
61.328
 20
15.495
 10
61.328
 20
14.945
 42
-1.000000
 10
61.028
 20
14.945
  0
LWPOLYLINE
  5
1EC
100
AcDbEntity
  8
PART_PADS_SMD_BTM
100
AcDbPolyline
 90
        4
 70
         1
 43
0.0
 10
61.528
 20
15.495
 10
61.828
 20
15.495
 10
61.828
 20
14.945
 42
-1.000000
 10
61.528
 20
14.945
  0
LWPOLYLINE
  5
1ED
100
AcDbEntity
  8
PART_PADS_SMD_BTM
100
AcDbPolyline
 90
        4
 70
         1
 43
0.0
 10
62.028
 20
15.495
 10
62.328
 20
15.495
 10
62.328
 20
14.945
 42
-1.000000
 10
62.028
 20
14.945
  0
LWPOLYLINE
  5
1EE
100
AcDbEntity
  8
PART_PADS_SMD_BTM
100
AcDbPolyline
 90
        4
 70
         1
 43
0.0
 10
60.528
 20
15.495
 10
60.828
 20
15.495
 10
60.828
 20
14.945
 42
-1.000000
 10
60.528
 20
14.945
  0
LWPOLYLINE
  5
1EF
100
AcDbEntity
  8
PART_PADS_SMD_BTM
100
AcDbPolyline
 90
        4
 70
         1
 43
0.0
 10
62.328
 20
6.095
 10
62.028
 20
6.095
 10
62.028
 20
6.645
 42
-1.000000
 10
62.328
 20
6.645
  0
LWPOLYLINE
  5
1F0
100
AcDbEntity
  8
PART_PADS_SMD_BTM
100
AcDbPolyline
 90
        4
 70
         1
 43
0.0
 10
61.828
 20
6.095
 10
61.528
 20
6.095
 10
61.528
 20
6.645
 42
-1.000000
 10
61.828
 20
6.645
  0
LWPOLYLINE
  5
1F1
100
AcDbEntity
  8
PART_PADS_SMD_BTM
100
AcDbPolyline
 90
        4
 70
         1
 43
0.0
 10
61.328
 20
6.095
 10
61.028
 20
6.095
 10
61.028
 20
6.645
 42
-1.000000
 10
61.328
 20
6.645
  0
LWPOLYLINE
  5
1F2
100
AcDbEntity
  8
PART_PADS_SMD_BTM
100
AcDbPolyline
 90
        4
 70
         1
 43
0.0
 10
60.828
 20
6.095
 10
60.528
 20
6.095
 10
60.528
 20
6.645
 42
-1.000000
 10
60.828
 20
6.645
  0
LWPOLYLINE
  5
1F3
100
AcDbEntity
  8
PART_PADS_SMD_BTM
100
AcDbPolyline
 90
        4
 70
         1
 43
0.0
 10
60.028
 20
15.495
 10
60.328
 20
15.495
 10
60.328
 20
14.945
 42
-1.000000
 10
60.028
 20
14.945
  0
LWPOLYLINE
  5
1F4
100
AcDbEntity
  8
PART_PADS_SMD_BTM
100
AcDbPolyline
 90
        4
 70
         1
 43
0.0
 10
60.328
 20
6.095
 10
60.028
 20
6.095
 10
60.028
 20
6.645
 42
-1.000000
 10
60.328
 20
6.645
  0
LWPOLYLINE
  5
1F5
100
AcDbEntity
  8
PART_PADS_SMD_BTM
100
AcDbPolyline
 90
        4
 70
         1
 43
0.0
 10
57.528
 20
15.495
 10
57.828
 20
15.495
 10
57.828
 20
14.945
 42
-1.000000
 10
57.528
 20
14.945
  0
LWPOLYLINE
  5
1F6
100
AcDbEntity
  8
PART_PADS_SMD_BTM
100
AcDbPolyline
 90
        4
 70
         1
 43
0.0
 10
57.028
 20
15.495
 10
57.328
 20
15.495
 10
57.328
 20
14.945
 42
-1.000000
 10
57.028
 20
14.945
  0
LWPOLYLINE
  5
1F7
100
AcDbEntity
  8
PART_PADS_SMD_BTM
100
AcDbPolyline
 90
        4
 70
         1
 43
0.0
 10
58.028
 20
15.495
 10
58.328
 20
15.495
 10
58.328
 20
14.945
 42
-1.000000
 10
58.028
 20
14.945
  0
LWPOLYLINE
  5
1F8
100
AcDbEntity
  8
PART_PADS_SMD_BTM
100
AcDbPolyline
 90
        4
 70
         1
 43
0.0
 10
58.528
 20
15.495
 10
58.828
 20
15.495
 10
58.828
 20
14.945
 42
-1.000000
 10
58.528
 20
14.945
  0
LWPOLYLINE
  5
1F9
100
AcDbEntity
  8
PART_PADS_SMD_BTM
100
AcDbPolyline
 90
        4
 70
         1
 43
0.0
 10
59.028
 20
15.495
 10
59.328
 20
15.495
 10
59.328
 20
14.945
 42
-1.000000
 10
59.028
 20
14.945
  0
LWPOLYLINE
  5
1FA
100
AcDbEntity
  8
PART_PADS_SMD_BTM
100
AcDbPolyline
 90
        4
 70
         1
 43
0.0
 10
57.828
 20
6.095
 10
57.528
 20
6.095
 10
57.528
 20
6.645
 42
-1.000000
 10
57.828
 20
6.645
  0
LWPOLYLINE
  5
1FB
100
AcDbEntity
  8
PART_PADS_SMD_BTM
100
AcDbPolyline
 90
        4
 70
         1
 43
0.0
 10
56.828
 20
6.095
 10
56.528
 20
6.095
 10
56.528
 20
6.645
 42
-1.000000
 10
56.828
 20
6.645
  0
LWPOLYLINE
  5
1FC
100
AcDbEntity
  8
PART_PADS_SMD_BTM
100
AcDbPolyline
 90
        4
 70
         1
 43
0.0
 10
57.328
 20
6.095
 10
57.028
 20
6.095
 10
57.028
 20
6.645
 42
-1.000000
 10
57.328
 20
6.645
  0
LWPOLYLINE
  5
1FD
100
AcDbEntity
  8
PART_PADS_SMD_BTM
100
AcDbPolyline
 90
        4
 70
         1
 43
0.0
 10
56.008
 20
7.875
 10
56.008
 20
13.715
 10
61.848
 20
13.715
 10
61.848
 20
7.875
  0
LWPOLYLINE
  5
1FE
100
AcDbEntity
  8
PART_PADS_SMD_BTM
100
AcDbPolyline
 90
        4
 70
         1
 43
0.0
 10
59.328
 20
6.095
 10
59.028
 20
6.095
 10
59.028
 20
6.645
 42
-1.000000
 10
59.328
 20
6.645
  0
LWPOLYLINE
  5
1FF
100
AcDbEntity
  8
PART_PADS_SMD_BTM
100
AcDbPolyline
 90
        4
 70
         1
 43
0.0
 10
56.528
 20
15.495
 10
56.828
 20
15.495
 10
56.828
 20
14.945
 42
-1.000000
 10
56.528
 20
14.945
  0
LWPOLYLINE
  5
200
100
AcDbEntity
  8
PART_PADS_SMD_BTM
100
AcDbPolyline
 90
        4
 70
         1
 43
0.0
 10
58.328
 20
6.095
 10
58.028
 20
6.095
 10
58.028
 20
6.645
 42
-1.000000
 10
58.328
 20
6.645
  0
LWPOLYLINE
  5
201
100
AcDbEntity
  8
PART_PADS_SMD_BTM
100
AcDbPolyline
 90
        4
 70
         1
 43
0.0
 10
59.828
 20
6.095
 10
59.528
 20
6.095
 10
59.528
 20
6.645
 42
-1.000000
 10
59.828
 20
6.645
  0
LWPOLYLINE
  5
202
100
AcDbEntity
  8
PART_PADS_SMD_BTM
100
AcDbPolyline
 90
        4
 70
         1
 43
0.0
 10
59.528
 20
15.495
 10
59.828
 20
15.495
 10
59.828
 20
14.945
 42
-1.000000
 10
59.528
 20
14.945
  0
LWPOLYLINE
  5
203
100
AcDbEntity
  8
PART_PADS_SMD_BTM
100
AcDbPolyline
 90
        4
 70
         1
 43
0.0
 10
58.828
 20
6.095
 10
58.528
 20
6.095
 10
58.528
 20
6.645
 42
-1.000000
 10
58.828
 20
6.645
  0
LWPOLYLINE
  5
204
100
AcDbEntity
  8
PART_PADS_SMD_BTM
100
AcDbPolyline
 90
        4
 70
         1
 43
0.0
 10
54.228
 20
14.395
 10
54.228
 20
14.695
 10
54.778
 20
14.695
 42
-1.000000
 10
54.778
 20
14.395
  0
LWPOLYLINE
  5
205
100
AcDbEntity
  8
PART_PADS_SMD_BTM
100
AcDbPolyline
 90
        4
 70
         1
 43
0.0
 10
54.228
 20
13.395
 10
54.228
 20
13.695
 10
54.778
 20
13.695
 42
-1.000000
 10
54.778
 20
13.395
  0
LWPOLYLINE
  5
206
100
AcDbEntity
  8
PART_PADS_SMD_BTM
100
AcDbPolyline
 90
        4
 70
         1
 43
0.0
 10
54.228
 20
13.895
 10
54.228
 20
14.195
 10
54.778
 20
14.195
 42
-1.000000
 10
54.778
 20
13.895
  0
LWPOLYLINE
  5
207
100
AcDbEntity
  8
PART_PADS_SMD_BTM
100
AcDbPolyline
 90
        4
 70
         1
 43
0.0
 10
55.028
 20
15.495
 10
55.328
 20
15.495
 10
55.328
 20
14.945
 42
-1.000000
 10
55.028
 20
14.945
  0
LWPOLYLINE
  5
208
100
AcDbEntity
  8
PART_PADS_SMD_BTM
100
AcDbPolyline
 90
        4
 70
         1
 43
0.0
 10
56.028
 20
15.495
 10
56.328
 20
15.495
 10
56.328
 20
14.945
 42
-1.000000
 10
56.028
 20
14.945
  0
LWPOLYLINE
  5
209
100
AcDbEntity
  8
PART_PADS_SMD_BTM
100
AcDbPolyline
 90
        4
 70
         1
 43
0.0
 10
55.528
 20
15.495
 10
55.828
 20
15.495
 10
55.828
 20
14.945
 42
-1.000000
 10
55.528
 20
14.945
  0
LWPOLYLINE
  5
20A
100
AcDbEntity
  8
PART_PADS_SMD_BTM
100
AcDbPolyline
 90
        4
 70
         1
 43
0.0
 10
55.828
 20
6.095
 10
55.528
 20
6.095
 10
55.528
 20
6.645
 42
-1.000000
 10
55.828
 20
6.645
  0
LWPOLYLINE
  5
20B
100
AcDbEntity
  8
PART_PADS_SMD_BTM
100
AcDbPolyline
 90
        4
 70
         1
 43
0.0
 10
56.328
 20
6.095
 10
56.028
 20
6.095
 10
56.028
 20
6.645
 42
-1.000000
 10
56.328
 20
6.645
  0
LWPOLYLINE
  5
20C
100
AcDbEntity
  8
PART_PADS_SMD_BTM
100
AcDbPolyline
 90
        4
 70
         1
 43
0.0
 10
54.228
 20
12.895
 10
54.228
 20
13.195
 10
54.778
 20
13.195
 42
-1.000000
 10
54.778
 20
12.895
  0
LWPOLYLINE
  5
20D
100
AcDbEntity
  8
PART_PADS_SMD_BTM
100
AcDbPolyline
 90
        4
 70
         1
 43
0.0
 10
54.228
 20
12.395
 10
54.228
 20
12.695
 10
54.778
 20
12.695
 42
-1.000000
 10
54.778
 20
12.395
  0
LWPOLYLINE
  5
20E
100
AcDbEntity
  8
PART_PADS_SMD_BTM
100
AcDbPolyline
 90
        4
 70
         1
 43
0.0
 10
63.628
 20
12.195
 10
63.628
 20
11.895
 10
63.078
 20
11.895
 42
-1.000000
 10
63.078
 20
12.195
  0
LWPOLYLINE
  5
20F
100
AcDbEntity
  8
PART_PADS_SMD_BTM
100
AcDbPolyline
 90
        4
 70
         1
 43
0.0
 10
63.628
 20
9.195
 10
63.628
 20
8.895
 10
63.078
 20
8.895
 42
-1.000000
 10
63.078
 20
9.195
  0
LWPOLYLINE
  5
210
100
AcDbEntity
  8
PART_PADS_SMD_BTM
100
AcDbPolyline
 90
        4
 70
         1
 43
0.0
 10
63.628
 20
13.695
 10
63.628
 20
13.395
 10
63.078
 20
13.395
 42
-1.000000
 10
63.078
 20
13.695
  0
LWPOLYLINE
  5
211
100
AcDbEntity
  8
PART_PADS_SMD_BTM
100
AcDbPolyline
 90
        4
 70
         1
 43
0.0
 10
63.628
 20
14.195
 10
63.628
 20
13.895
 10
63.078
 20
13.895
 42
-1.000000
 10
63.078
 20
14.195
  0
LWPOLYLINE
  5
212
100
AcDbEntity
  8
PART_PADS_SMD_BTM
100
AcDbPolyline
 90
        4
 70
         1
 43
0.0
 10
63.628
 20
7.695
 10
63.628
 20
7.395
 10
63.078
 20
7.395
 42
-1.000000
 10
63.078
 20
7.695
  0
LWPOLYLINE
  5
213
100
AcDbEntity
  8
PART_PADS_SMD_BTM
100
AcDbPolyline
 90
        4
 70
         1
 43
0.0
 10
63.628
 20
8.195
 10
63.628
 20
7.895
 10
63.078
 20
7.895
 42
-1.000000
 10
63.078
 20
8.195
  0
LWPOLYLINE
  5
214
100
AcDbEntity
  8
PART_PADS_SMD_BTM
100
AcDbPolyline
 90
        4
 70
         1
 43
0.0
 10
54.228
 20
10.895
 10
54.228
 20
11.195
 10
54.778
 20
11.195
 42
-1.000000
 10
54.778
 20
10.895
  0
LWPOLYLINE
  5
215
100
AcDbEntity
  8
PART_PADS_SMD_BTM
100
AcDbPolyline
 90
        4
 70
         1
 43
0.0
 10
54.228
 20
9.395
 10
54.228
 20
9.695
 10
54.778
 20
9.695
 42
-1.000000
 10
54.778
 20
9.395
  0
LWPOLYLINE
  5
216
100
AcDbEntity
  8
PART_PADS_SMD_BTM
100
AcDbPolyline
 90
        4
 70
         1
 43
0.0
 10
54.228
 20
8.395
 10
54.228
 20
8.695
 10
54.778
 20
8.695
 42
-1.000000
 10
54.778
 20
8.395
  0
LWPOLYLINE
  5
217
100
AcDbEntity
  8
PART_PADS_SMD_BTM
100
AcDbPolyline
 90
        4
 70
         1
 43
0.0
 10
54.228
 20
6.895
 10
54.228
 20
7.195
 10
54.778
 20
7.195
 42
-1.000000
 10
54.778
 20
6.895
  0
LWPOLYLINE
  5
218
100
AcDbEntity
  8
PART_PADS_SMD_BTM
100
AcDbPolyline
 90
        4
 70
         1
 43
0.0
 10
54.228
 20
11.395
 10
54.228
 20
11.695
 10
54.778
 20
11.695
 42
-1.000000
 10
54.778
 20
11.395
  0
LWPOLYLINE
  5
219
100
AcDbEntity
  8
PART_PADS_SMD_BTM
100
AcDbPolyline
 90
        4
 70
         1
 43
0.0
 10
54.228
 20
9.895
 10
54.228
 20
10.195
 10
54.778
 20
10.195
 42
-1.000000
 10
54.778
 20
9.895
  0
LWPOLYLINE
  5
21A
100
AcDbEntity
  8
PART_PADS_SMD_BTM
100
AcDbPolyline
 90
        4
 70
         1
 43
0.0
 10
54.228
 20
8.895
 10
54.228
 20
9.195
 10
54.778
 20
9.195
 42
-1.000000
 10
54.778
 20
8.895
  0
LWPOLYLINE
  5
21B
100
AcDbEntity
  8
PART_PADS_SMD_BTM
100
AcDbPolyline
 90
        4
 70
         1
 43
0.0
 10
54.228
 20
7.395
 10
54.228
 20
7.695
 10
54.778
 20
7.695
 42
-1.000000
 10
54.778
 20
7.395
  0
LWPOLYLINE
  5
21C
100
AcDbEntity
  8
PART_PADS_SMD_BTM
100
AcDbPolyline
 90
        4
 70
         1
 43
0.0
 10
63.628
 20
13.195
 10
63.628
 20
12.895
 10
63.078
 20
12.895
 42
-1.000000
 10
63.078
 20
13.195
  0
LWPOLYLINE
  5
21D
100
AcDbEntity
  8
PART_PADS_SMD_BTM
100
AcDbPolyline
 90
        4
 70
         1
 43
0.0
 10
63.628
 20
12.695
 10
63.628
 20
12.395
 10
63.078
 20
12.395
 42
-1.000000
 10
63.078
 20
12.695
  0
LWPOLYLINE
  5
21E
100
AcDbEntity
  8
PART_PADS_SMD_BTM
100
AcDbPolyline
 90
        4
 70
         1
 43
0.0
 10
55.328
 20
6.095
 10
55.028
 20
6.095
 10
55.028
 20
6.645
 42
-1.000000
 10
55.328
 20
6.645
  0
LWPOLYLINE
  5
21F
100
AcDbEntity
  8
PART_PADS_SMD_BTM
100
AcDbPolyline
 90
        4
 70
         1
 43
0.0
 10
63.628
 20
8.695
 10
63.628
 20
8.395
 10
63.078
 20
8.395
 42
-1.000000
 10
63.078
 20
8.695
  0
LWPOLYLINE
  5
220
100
AcDbEntity
  8
PART_PADS_SMD_BTM
100
AcDbPolyline
 90
        4
 70
         1
 43
0.0
 10
54.228
 20
11.895
 10
54.228
 20
12.195
 10
54.778
 20
12.195
 42
-1.000000
 10
54.778
 20
11.895
  0
LWPOLYLINE
  5
221
100
AcDbEntity
  8
PART_PADS_SMD_BTM
100
AcDbPolyline
 90
        4
 70
         1
 43
0.0
 10
54.228
 20
10.395
 10
54.228
 20
10.695
 10
54.778
 20
10.695
 42
-1.000000
 10
54.778
 20
10.395
  0
LWPOLYLINE
  5
222
100
AcDbEntity
  8
PART_PADS_SMD_BTM
100
AcDbPolyline
 90
        4
 70
         1
 43
0.0
 10
54.228
 20
7.895
 10
54.228
 20
8.195
 10
54.778
 20
8.195
 42
-1.000000
 10
54.778
 20
7.895
  0
LWPOLYLINE
  5
223
100
AcDbEntity
  8
PART_PADS_SMD_BTM
100
AcDbPolyline
 90
        4
 70
         1
 43
0.0
 10
63.628
 20
9.695
 10
63.628
 20
9.395
 10
63.078
 20
9.395
 42
-1.000000
 10
63.078
 20
9.695
  0
LWPOLYLINE
  5
224
100
AcDbEntity
  8
PART_PADS_SMD_BTM
100
AcDbPolyline
 90
        4
 70
         1
 43
0.0
 10
63.628
 20
10.695
 10
63.628
 20
10.395
 10
63.078
 20
10.395
 42
-1.000000
 10
63.078
 20
10.695
  0
LWPOLYLINE
  5
225
100
AcDbEntity
  8
PART_PADS_SMD_BTM
100
AcDbPolyline
 90
        4
 70
         1
 43
0.0
 10
63.628
 20
10.195
 10
63.628
 20
9.895
 10
63.078
 20
9.895
 42
-1.000000
 10
63.078
 20
10.195
  0
LWPOLYLINE
  5
226
100
AcDbEntity
  8
PART_PADS_SMD_BTM
100
AcDbPolyline
 90
        4
 70
         1
 43
0.0
 10
63.628
 20
11.695
 10
63.628
 20
11.395
 10
63.078
 20
11.395
 42
-1.000000
 10
63.078
 20
11.695
  0
LWPOLYLINE
  5
227
100
AcDbEntity
  8
PART_PADS_SMD_BTM
100
AcDbPolyline
 90
        4
 70
         1
 43
0.0
 10
63.628
 20
11.195
 10
63.628
 20
10.895
 10
63.078
 20
10.895
 42
-1.000000
 10
63.078
 20
11.195
  0
LWPOLYLINE
  5
228
100
AcDbEntity
  8
PART_PADS_SMD_BTM
100
AcDbPolyline
 90
        4
 70
         1
 43
0.0
 10
62.528
 20
15.495
 10
62.828
 20
15.495
 10
62.828
 20
14.945
 42
-1.000000
 10
62.528
 20
14.945
  0
LWPOLYLINE
  5
229
100
AcDbEntity
  8
PART_PADS_SMD_BTM
100
AcDbPolyline
 90
        4
 70
         1
 43
0.0
 10
63.628
 20
14.695
 10
63.628
 20
14.395
 10
63.078
 20
14.395
 42
-1.000000
 10
63.078
 20
14.695
  0
CIRCLE
  5
22A
100
AcDbEntity
  8
PART_PADS_SMD_BTM
100
AcDbCircle
 10
56.0
 20
47.538
 30
0.0
 40
2.75
  0
LWPOLYLINE
  5
22B
100
AcDbEntity
  8
PART_PADS_SMD_BTM
100
AcDbPolyline
 90
        4
 70
         1
 43
0.0
 10
6.585
 20
38.853
 10
6.585
 20
40.253
 10
7.385
 20
40.253
 10
7.385
 20
38.853
  0
LWPOLYLINE
  5
22C
100
AcDbEntity
  8
PART_PADS_SMD_BTM
100
AcDbPolyline
 90
        4
 70
         1
 43
0.0
 10
4.045
 20
38.853
 10
4.045
 20
40.253
 10
4.845
 20
40.253
 10
4.845
 20
38.853
  0
LWPOLYLINE
  5
22D
100
AcDbEntity
  8
PART_PADS_SMD_BTM
100
AcDbPolyline
 90
        4
 70
         1
 43
0.0
 10
4.045
 20
33.153
 10
4.045
 20
34.553
 10
4.845
 20
34.553
 10
4.845
 20
33.153
  0
LWPOLYLINE
  5
22E
100
AcDbEntity
  8
PART_PADS_SMD_BTM
100
AcDbPolyline
 90
        4
 70
         1
 43
0.0
 10
6.585
 20
33.153
 10
6.585
 20
34.553
 10
7.385
 20
34.553
 10
7.385
 20
33.153
  0
LWPOLYLINE
  5
22F
100
AcDbEntity
  8
PART_PADS_SMD_BTM
100
AcDbPolyline
 90
        4
 70
         1
 43
0.0
 10
34.9458
 20
41.68
 10
34.9458
 20
44.68
 10
37.5458
 20
44.68
 10
37.5458
 20
41.68
  0
LWPOLYLINE
  5
230
100
AcDbEntity
  8
PART_PADS_SMD_BTM
100
AcDbPolyline
 90
        4
 70
         1
 43
0.0
 10
33.8708
 20
41.43
 10
33.8708
 20
41.73
 10
34.5208
 20
41.73
 42
-1.000000
 10
34.5208
 20
41.43
  0
LWPOLYLINE
  5
231
100
AcDbEntity
  8
PART_PADS_SMD_BTM
100
AcDbPolyline
 90
        4
 70
         1
 43
0.0
 10
33.8708
 20
42.23
 10
33.8708
 20
42.53
 10
34.5208
 20
42.53
 42
-1.000000
 10
34.5208
 20
42.23
  0
LWPOLYLINE
  5
232
100
AcDbEntity
  8
PART_PADS_SMD_BTM
100
AcDbPolyline
 90
        4
 70
         1
 43
0.0
 10
33.8708
 20
43.03
 10
33.8708
 20
43.33
 10
34.5208
 20
43.33
 42
-1.000000
 10
34.5208
 20
43.03
  0
LWPOLYLINE
  5
233
100
AcDbEntity
  8
PART_PADS_SMD_BTM
100
AcDbPolyline
 90
        4
 70
         1
 43
0.0
 10
33.8708
 20
43.83
 10
33.8708
 20
44.13
 10
34.5208
 20
44.13
 42
-1.000000
 10
34.5208
 20
43.83
  0
LWPOLYLINE
  5
234
100
AcDbEntity
  8
PART_PADS_SMD_BTM
100
AcDbPolyline
 90
        4
 70
         1
 43
0.0
 10
33.8708
 20
44.63
 10
33.8708
 20
44.93
 10
34.5208
 20
44.93
 42
-1.000000
 10
34.5208
 20
44.63
  0
LWPOLYLINE
  5
235
100
AcDbEntity
  8
PART_PADS_SMD_BTM
100
AcDbPolyline
 90
        4
 70
         1
 43
0.0
 10
38.6208
 20
44.93
 10
38.6208
 20
44.63
 10
37.9708
 20
44.63
 42
-1.000000
 10
37.9708
 20
44.93
  0
LWPOLYLINE
  5
236
100
AcDbEntity
  8
PART_PADS_SMD_BTM
100
AcDbPolyline
 90
        4
 70
         1
 43
0.0
 10
38.6208
 20
44.13
 10
38.6208
 20
43.83
 10
37.9708
 20
43.83
 42
-1.000000
 10
37.9708
 20
44.13
  0
LWPOLYLINE
  5
237
100
AcDbEntity
  8
PART_PADS_SMD_BTM
100
AcDbPolyline
 90
        4
 70
         1
 43
0.0
 10
38.6208
 20
43.33
 10
38.6208
 20
43.03
 10
37.9708
 20
43.03
 42
-1.000000
 10
37.9708
 20
43.33
  0
LWPOLYLINE
  5
238
100
AcDbEntity
  8
PART_PADS_SMD_BTM
100
AcDbPolyline
 90
        4
 70
         1
 43
0.0
 10
38.6208
 20
42.53
 10
38.6208
 20
42.23
 10
37.9708
 20
42.23
 42
-1.000000
 10
37.9708
 20
42.53
  0
LWPOLYLINE
  5
239
100
AcDbEntity
  8
PART_PADS_SMD_BTM
100
AcDbPolyline
 90
        4
 70
         1
 43
0.0
 10
38.6208
 20
41.73
 10
38.6208
 20
41.43
 10
37.9708
 20
41.43
 42
-1.000000
 10
37.9708
 20
41.73
  0
LWPOLYLINE
  5
23A
100
AcDbEntity
  8
PART_PADS_SMD_BTM
100
AcDbPolyline
 90
        4
 70
         1
 43
0.0
 10
81.251
 20
14.957
 10
81.251
 20
15.257
 10
82.801
 20
15.257
 10
82.801
 20
14.957
  0
LWPOLYLINE
  5
23B
100
AcDbEntity
  8
PART_PADS_SMD_BTM
100
AcDbPolyline
 90
        4
 70
         1
 43
0.0
 10
81.251
 20
15.457
 10
81.251
 20
15.757
 10
82.801
 20
15.757
 10
82.801
 20
15.457
  0
LWPOLYLINE
  5
23C
100
AcDbEntity
  8
PART_PADS_SMD_BTM
100
AcDbPolyline
 90
        4
 70
         1
 43
0.0
 10
81.251
 20
15.957
 10
81.251
 20
16.257
 10
82.801
 20
16.257
 10
82.801
 20
15.957
  0
LWPOLYLINE
  5
23D
100
AcDbEntity
  8
PART_PADS_SMD_BTM
100
AcDbPolyline
 90
        4
 70
         1
 43
0.0
 10
81.251
 20
16.457
 10
81.251
 20
16.757
 10
82.801
 20
16.757
 10
82.801
 20
16.457
  0
LWPOLYLINE
  5
23E
100
AcDbEntity
  8
PART_PADS_SMD_BTM
100
AcDbPolyline
 90
        4
 70
         1
 43
0.0
 10
81.251
 20
16.957
 10
81.251
 20
17.257
 10
82.801
 20
17.257
 10
82.801
 20
16.957
  0
LWPOLYLINE
  5
23F
100
AcDbEntity
  8
PART_PADS_SMD_BTM
100
AcDbPolyline
 90
        4
 70
         1
 43
0.0
 10
81.251
 20
17.457
 10
81.251
 20
17.757
 10
82.801
 20
17.757
 10
82.801
 20
17.457
  0
LWPOLYLINE
  5
240
100
AcDbEntity
  8
PART_PADS_SMD_BTM
100
AcDbPolyline
 90
        4
 70
         1
 43
0.0
 10
81.251
 20
17.957
 10
81.251
 20
18.257
 10
82.801
 20
18.257
 10
82.801
 20
17.957
  0
LWPOLYLINE
  5
241
100
AcDbEntity
  8
PART_PADS_SMD_BTM
100
AcDbPolyline
 90
        4
 70
         1
 43
0.0
 10
81.251
 20
18.457
 10
81.251
 20
18.757
 10
82.801
 20
18.757
 10
82.801
 20
18.457
  0
LWPOLYLINE
  5
242
100
AcDbEntity
  8
PART_PADS_SMD_BTM
100
AcDbPolyline
 90
        4
 70
         1
 43
0.0
 10
81.251
 20
18.957
 10
81.251
 20
19.257
 10
82.801
 20
19.257
 10
82.801
 20
18.957
  0
LWPOLYLINE
  5
243
100
AcDbEntity
  8
PART_PADS_SMD_BTM
100
AcDbPolyline
 90
        4
 70
         1
 43
0.0
 10
81.251
 20
19.457
 10
81.251
 20
19.757
 10
82.801
 20
19.757
 10
82.801
 20
19.457
  0
LWPOLYLINE
  5
244
100
AcDbEntity
  8
PART_PADS_SMD_BTM
100
AcDbPolyline
 90
        4
 70
         1
 43
0.0
 10
81.251
 20
19.957
 10
81.251
 20
20.257
 10
82.801
 20
20.257
 10
82.801
 20
19.957
  0
LWPOLYLINE
  5
245
100
AcDbEntity
  8
PART_PADS_SMD_BTM
100
AcDbPolyline
 90
        4
 70
         1
 43
0.0
 10
81.251
 20
20.457
 10
81.251
 20
20.757
 10
82.801
 20
20.757
 10
82.801
 20
20.457
  0
LWPOLYLINE
  5
246
100
AcDbEntity
  8
PART_PADS_SMD_BTM
100
AcDbPolyline
 90
        4
 70
         1
 43
0.0
 10
81.251
 20
20.957
 10
81.251
 20
21.257
 10
82.801
 20
21.257
 10
82.801
 20
20.957
  0
LWPOLYLINE
  5
247
100
AcDbEntity
  8
PART_PADS_SMD_BTM
100
AcDbPolyline
 90
        4
 70
         1
 43
0.0
 10
81.251
 20
21.457
 10
81.251
 20
21.757
 10
82.801
 20
21.757
 10
82.801
 20
21.457
  0
LWPOLYLINE
  5
248
100
AcDbEntity
  8
PART_PADS_SMD_BTM
100
AcDbPolyline
 90
        4
 70
         1
 43
0.0
 10
81.251
 20
21.957
 10
81.251
 20
22.257
 10
82.801
 20
22.257
 10
82.801
 20
21.957
  0
LWPOLYLINE
  5
249
100
AcDbEntity
  8
PART_PADS_SMD_BTM
100
AcDbPolyline
 90
        4
 70
         1
 43
0.0
 10
81.251
 20
22.457
 10
81.251
 20
22.757
 10
82.801
 20
22.757
 10
82.801
 20
22.457
  0
LWPOLYLINE
  5
24A
100
AcDbEntity
  8
PART_PADS_SMD_BTM
100
AcDbPolyline
 90
        4
 70
         1
 43
0.0
 10
81.251
 20
22.957
 10
81.251
 20
23.257
 10
82.801
 20
23.257
 10
82.801
 20
22.957
  0
LWPOLYLINE
  5
24B
100
AcDbEntity
  8
PART_PADS_SMD_BTM
100
AcDbPolyline
 90
        4
 70
         1
 43
0.0
 10
81.251
 20
23.457
 10
81.251
 20
23.757
 10
82.801
 20
23.757
 10
82.801
 20
23.457
  0
LWPOLYLINE
  5
24C
100
AcDbEntity
  8
PART_PADS_SMD_BTM
100
AcDbPolyline
 90
        4
 70
         1
 43
0.0
 10
81.251
 20
23.957
 10
81.251
 20
24.257
 10
82.801
 20
24.257
 10
82.801
 20
23.957
  0
LWPOLYLINE
  5
24D
100
AcDbEntity
  8
PART_PADS_SMD_BTM
100
AcDbPolyline
 90
        4
 70
         1
 43
0.0
 10
81.251
 20
24.457
 10
81.251
 20
24.757
 10
82.801
 20
24.757
 10
82.801
 20
24.457
  0
LWPOLYLINE
  5
24E
100
AcDbEntity
  8
PART_PADS_SMD_BTM
100
AcDbPolyline
 90
        4
 70
         1
 43
0.0
 10
81.251
 20
24.957
 10
81.251
 20
25.257
 10
82.801
 20
25.257
 10
82.801
 20
24.957
  0
LWPOLYLINE
  5
24F
100
AcDbEntity
  8
PART_PADS_SMD_BTM
100
AcDbPolyline
 90
        4
 70
         1
 43
0.0
 10
81.251
 20
25.457
 10
81.251
 20
25.757
 10
82.801
 20
25.757
 10
82.801
 20
25.457
  0
LWPOLYLINE
  5
250
100
AcDbEntity
  8
PART_PADS_SMD_BTM
100
AcDbPolyline
 90
        4
 70
         1
 43
0.0
 10
81.251
 20
25.957
 10
81.251
 20
26.257
 10
82.801
 20
26.257
 10
82.801
 20
25.957
  0
LWPOLYLINE
  5
251
100
AcDbEntity
  8
PART_PADS_SMD_BTM
100
AcDbPolyline
 90
        4
 70
         1
 43
0.0
 10
81.251
 20
26.457
 10
81.251
 20
26.757
 10
82.801
 20
26.757
 10
82.801
 20
26.457
  0
LWPOLYLINE
  5
252
100
AcDbEntity
  8
PART_PADS_SMD_BTM
100
AcDbPolyline
 90
        4
 70
         1
 43
0.0
 10
81.251
 20
26.957
 10
81.251
 20
27.257
 10
82.801
 20
27.257
 10
82.801
 20
26.957
  0
LWPOLYLINE
  5
253
100
AcDbEntity
  8
PART_PADS_SMD_BTM
100
AcDbPolyline
 90
        4
 70
         1
 43
0.0
 10
81.251
 20
27.457
 10
81.251
 20
27.757
 10
82.801
 20
27.757
 10
82.801
 20
27.457
  0
LWPOLYLINE
  5
254
100
AcDbEntity
  8
PART_PADS_SMD_BTM
100
AcDbPolyline
 90
        4
 70
         1
 43
0.0
 10
81.251
 20
27.957
 10
81.251
 20
28.257
 10
82.801
 20
28.257
 10
82.801
 20
27.957
  0
LWPOLYLINE
  5
255
100
AcDbEntity
  8
PART_PADS_SMD_BTM
100
AcDbPolyline
 90
        4
 70
         1
 43
0.0
 10
81.251
 20
28.457
 10
81.251
 20
28.757
 10
82.801
 20
28.757
 10
82.801
 20
28.457
  0
LWPOLYLINE
  5
256
100
AcDbEntity
  8
PART_PADS_SMD_BTM
100
AcDbPolyline
 90
        4
 70
         1
 43
0.0
 10
81.251
 20
28.957
 10
81.251
 20
29.257
 10
82.801
 20
29.257
 10
82.801
 20
28.957
  0
LWPOLYLINE
  5
257
100
AcDbEntity
  8
PART_PADS_SMD_BTM
100
AcDbPolyline
 90
        4
 70
         1
 43
0.0
 10
88.801
 20
31.207
 10
88.801
 20
31.507
 10
90.351
 20
31.507
 10
90.351
 20
31.207
  0
LWPOLYLINE
  5
258
100
AcDbEntity
  8
PART_PADS_SMD_BTM
100
AcDbPolyline
 90
        4
 70
         1
 43
0.0
 10
81.251
 20
31.457
 10
81.251
 20
31.757
 10
82.801
 20
31.757
 10
82.801
 20
31.457
  0
LWPOLYLINE
  5
259
100
AcDbEntity
  8
PART_PADS_SMD_BTM
100
AcDbPolyline
 90
        4
 70
         1
 43
0.0
 10
88.801
 20
31.707
 10
88.801
 20
32.007
 10
90.351
 20
32.007
 10
90.351
 20
31.707
  0
LWPOLYLINE
  5
25A
100
AcDbEntity
  8
PART_PADS_SMD_BTM
100
AcDbPolyline
 90
        4
 70
         1
 43
0.0
 10
81.251
 20
31.957
 10
81.251
 20
32.257
 10
82.801
 20
32.257
 10
82.801
 20
31.957
  0
LWPOLYLINE
  5
25B
100
AcDbEntity
  8
PART_PADS_SMD_BTM
100
AcDbPolyline
 90
        4
 70
         1
 43
0.0
 10
88.801
 20
32.207
 10
88.801
 20
32.507
 10
90.351
 20
32.507
 10
90.351
 20
32.207
  0
LWPOLYLINE
  5
25C
100
AcDbEntity
  8
PART_PADS_SMD_BTM
100
AcDbPolyline
 90
        4
 70
         1
 43
0.0
 10
81.251
 20
32.457
 10
81.251
 20
32.757
 10
82.801
 20
32.757
 10
82.801
 20
32.457
  0
LWPOLYLINE
  5
25D
100
AcDbEntity
  8
PART_PADS_SMD_BTM
100
AcDbPolyline
 90
        4
 70
         1
 43
0.0
 10
88.801
 20
32.707
 10
88.801
 20
33.007
 10
90.351
 20
33.007
 10
90.351
 20
32.707
  0
LWPOLYLINE
  5
25E
100
AcDbEntity
  8
PART_PADS_SMD_BTM
100
AcDbPolyline
 90
        4
 70
         1
 43
0.0
 10
81.251
 20
32.957
 10
81.251
 20
33.257
 10
82.801
 20
33.257
 10
82.801
 20
32.957
  0
LWPOLYLINE
  5
25F
100
AcDbEntity
  8
PART_PADS_SMD_BTM
100
AcDbPolyline
 90
        4
 70
         1
 43
0.0
 10
88.801
 20
33.207
 10
88.801
 20
33.507
 10
90.351
 20
33.507
 10
90.351
 20
33.207
  0
LWPOLYLINE
  5
260
100
AcDbEntity
  8
PART_PADS_SMD_BTM
100
AcDbPolyline
 90
        4
 70
         1
 43
0.0
 10
87.301
 20
33.857
 10
87.301
 20
35.057
 10
90.301
 20
35.057
 10
90.301
 20
33.857
  0
LWPOLYLINE
  5
261
100
AcDbEntity
  8
PART_PADS_SMD_BTM
100
AcDbPolyline
 90
        4
 70
         1
 43
0.0
 10
88.801
 20
17.707
 10
88.801
 20
18.007
 10
90.351
 20
18.007
 10
90.351
 20
17.707
  0
LWPOLYLINE
  5
262
100
AcDbEntity
  8
PART_PADS_SMD_BTM
100
AcDbPolyline
 90
        4
 70
         1
 43
0.0
 10
88.801
 20
15.707
 10
88.801
 20
16.007
 10
90.351
 20
16.007
 10
90.351
 20
15.707
  0
LWPOLYLINE
  5
263
100
AcDbEntity
  8
PART_PADS_SMD_BTM
100
AcDbPolyline
 90
        4
 70
         1
 43
0.0
 10
88.801
 20
16.207
 10
88.801
 20
16.507
 10
90.351
 20
16.507
 10
90.351
 20
16.207
  0
LWPOLYLINE
  5
264
100
AcDbEntity
  8
PART_PADS_SMD_BTM
100
AcDbPolyline
 90
        4
 70
         1
 43
0.0
 10
88.801
 20
17.207
 10
88.801
 20
17.507
 10
90.351
 20
17.507
 10
90.351
 20
17.207
  0
LWPOLYLINE
  5
265
100
AcDbEntity
  8
PART_PADS_SMD_BTM
100
AcDbPolyline
 90
        4
 70
         1
 43
0.0
 10
88.801
 20
15.207
 10
88.801
 20
15.507
 10
90.351
 20
15.507
 10
90.351
 20
15.207
  0
LWPOLYLINE
  5
266
100
AcDbEntity
  8
PART_PADS_SMD_BTM
100
AcDbPolyline
 90
        4
 70
         1
 43
0.0
 10
88.801
 20
16.707
 10
88.801
 20
17.007
 10
90.351
 20
17.007
 10
90.351
 20
16.707
  0
LWPOLYLINE
  5
267
100
AcDbEntity
  8
PART_PADS_SMD_BTM
100
AcDbPolyline
 90
        4
 70
         1
 43
0.0
 10
88.801
 20
28.707
 10
88.801
 20
29.007
 10
90.351
 20
29.007
 10
90.351
 20
28.707
  0
LWPOLYLINE
  5
268
100
AcDbEntity
  8
PART_PADS_SMD_BTM
100
AcDbPolyline
 90
        4
 70
         1
 43
0.0
 10
88.801
 20
14.707
 10
88.801
 20
15.007
 10
90.351
 20
15.007
 10
90.351
 20
14.707
  0
LWPOLYLINE
  5
269
100
AcDbEntity
  8
PART_PADS_SMD_BTM
100
AcDbPolyline
 90
        4
 70
         1
 43
0.0
 10
87.301
 20
13.157
 10
87.301
 20
14.357
 10
90.301
 20
14.357
 10
90.301
 20
13.157
  0
LWPOLYLINE
  5
26A
100
AcDbEntity
  8
PART_PADS_SMD_BTM
100
AcDbPolyline
 90
        4
 70
         1
 43
0.0
 10
88.801
 20
28.207
 10
88.801
 20
28.507
 10
90.351
 20
28.507
 10
90.351
 20
28.207
  0
LWPOLYLINE
  5
26B
100
AcDbEntity
  8
PART_PADS_SMD_BTM
100
AcDbPolyline
 90
        4
 70
         1
 43
0.0
 10
88.801
 20
27.707
 10
88.801
 20
28.007
 10
90.351
 20
28.007
 10
90.351
 20
27.707
  0
LWPOLYLINE
  5
26C
100
AcDbEntity
  8
PART_PADS_SMD_BTM
100
AcDbPolyline
 90
        4
 70
         1
 43
0.0
 10
88.801
 20
23.707
 10
88.801
 20
24.007
 10
90.351
 20
24.007
 10
90.351
 20
23.707
  0
LWPOLYLINE
  5
26D
100
AcDbEntity
  8
PART_PADS_SMD_BTM
100
AcDbPolyline
 90
        4
 70
         1
 43
0.0
 10
88.801
 20
23.207
 10
88.801
 20
23.507
 10
90.351
 20
23.507
 10
90.351
 20
23.207
  0
LWPOLYLINE
  5
26E
100
AcDbEntity
  8
PART_PADS_SMD_BTM
100
AcDbPolyline
 90
        4
 70
         1
 43
0.0
 10
88.801
 20
18.707
 10
88.801
 20
19.007
 10
90.351
 20
19.007
 10
90.351
 20
18.707
  0
LWPOLYLINE
  5
26F
100
AcDbEntity
  8
PART_PADS_SMD_BTM
100
AcDbPolyline
 90
        4
 70
         1
 43
0.0
 10
88.801
 20
19.207
 10
88.801
 20
19.507
 10
90.351
 20
19.507
 10
90.351
 20
19.207
  0
LWPOLYLINE
  5
270
100
AcDbEntity
  8
PART_PADS_SMD_BTM
100
AcDbPolyline
 90
        4
 70
         1
 43
0.0
 10
88.801
 20
20.207
 10
88.801
 20
20.507
 10
90.351
 20
20.507
 10
90.351
 20
20.207
  0
LWPOLYLINE
  5
271
100
AcDbEntity
  8
PART_PADS_SMD_BTM
100
AcDbPolyline
 90
        4
 70
         1
 43
0.0
 10
88.801
 20
20.707
 10
88.801
 20
21.007
 10
90.351
 20
21.007
 10
90.351
 20
20.707
  0
LWPOLYLINE
  5
272
100
AcDbEntity
  8
PART_PADS_SMD_BTM
100
AcDbPolyline
 90
        4
 70
         1
 43
0.0
 10
88.801
 20
21.707
 10
88.801
 20
22.007
 10
90.351
 20
22.007
 10
90.351
 20
21.707
  0
LWPOLYLINE
  5
273
100
AcDbEntity
  8
PART_PADS_SMD_BTM
100
AcDbPolyline
 90
        4
 70
         1
 43
0.0
 10
88.801
 20
22.207
 10
88.801
 20
22.507
 10
90.351
 20
22.507
 10
90.351
 20
22.207
  0
LWPOLYLINE
  5
274
100
AcDbEntity
  8
PART_PADS_SMD_BTM
100
AcDbPolyline
 90
        4
 70
         1
 43
0.0
 10
88.801
 20
22.707
 10
88.801
 20
23.007
 10
90.351
 20
23.007
 10
90.351
 20
22.707
  0
LWPOLYLINE
  5
275
100
AcDbEntity
  8
PART_PADS_SMD_BTM
100
AcDbPolyline
 90
        4
 70
         1
 43
0.0
 10
88.801
 20
27.207
 10
88.801
 20
27.507
 10
90.351
 20
27.507
 10
90.351
 20
27.207
  0
LWPOLYLINE
  5
276
100
AcDbEntity
  8
PART_PADS_SMD_BTM
100
AcDbPolyline
 90
        4
 70
         1
 43
0.0
 10
88.801
 20
18.207
 10
88.801
 20
18.507
 10
90.351
 20
18.507
 10
90.351
 20
18.207
  0
LWPOLYLINE
  5
277
100
AcDbEntity
  8
PART_PADS_SMD_BTM
100
AcDbPolyline
 90
        4
 70
         1
 43
0.0
 10
88.801
 20
24.207
 10
88.801
 20
24.507
 10
90.351
 20
24.507
 10
90.351
 20
24.207
  0
LWPOLYLINE
  5
278
100
AcDbEntity
  8
PART_PADS_SMD_BTM
100
AcDbPolyline
 90
        4
 70
         1
 43
0.0
 10
88.801
 20
25.707
 10
88.801
 20
26.007
 10
90.351
 20
26.007
 10
90.351
 20
25.707
  0
LWPOLYLINE
  5
279
100
AcDbEntity
  8
PART_PADS_SMD_BTM
100
AcDbPolyline
 90
        4
 70
         1
 43
0.0
 10
88.801
 20
19.707
 10
88.801
 20
20.007
 10
90.351
 20
20.007
 10
90.351
 20
19.707
  0
LWPOLYLINE
  5
27A
100
AcDbEntity
  8
PART_PADS_SMD_BTM
100
AcDbPolyline
 90
        4
 70
         1
 43
0.0
 10
88.801
 20
21.207
 10
88.801
 20
21.507
 10
90.351
 20
21.507
 10
90.351
 20
21.207
  0
LWPOLYLINE
  5
27B
100
AcDbEntity
  8
PART_PADS_SMD_BTM
100
AcDbPolyline
 90
        4
 70
         1
 43
0.0
 10
88.801
 20
25.207
 10
88.801
 20
25.507
 10
90.351
 20
25.507
 10
90.351
 20
25.207
  0
LWPOLYLINE
  5
27C
100
AcDbEntity
  8
PART_PADS_SMD_BTM
100
AcDbPolyline
 90
        4
 70
         1
 43
0.0
 10
88.801
 20
24.707
 10
88.801
 20
25.007
 10
90.351
 20
25.007
 10
90.351
 20
24.707
  0
LWPOLYLINE
  5
27D
100
AcDbEntity
  8
PART_PADS_SMD_BTM
100
AcDbPolyline
 90
        4
 70
         1
 43
0.0
 10
88.801
 20
26.207
 10
88.801
 20
26.507
 10
90.351
 20
26.507
 10
90.351
 20
26.207
  0
LWPOLYLINE
  5
27E
100
AcDbEntity
  8
PART_PADS_SMD_BTM
100
AcDbPolyline
 90
        4
 70
         1
 43
0.0
 10
88.801
 20
26.707
 10
88.801
 20
27.007
 10
90.351
 20
27.007
 10
90.351
 20
26.707
  0
LWPOLYLINE
  5
27F
100
AcDbEntity
  8
PART_PADS_SMD_BTM
100
AcDbPolyline
 90
        4
 70
         1
 43
0.0
 10
31.8022
 20
35.617
 10
31.8022
 20
37.007
 10
33.2022
 20
37.007
 10
33.2022
 20
35.617
  0
LWPOLYLINE
  5
280
100
AcDbEntity
  8
PART_PADS_SMD_BTM
100
AcDbPolyline
 90
        4
 70
         1
 43
0.0
 10
31.8022
 20
33.777
 10
31.8022
 20
35.167
 10
33.2022
 20
35.167
 10
33.2022
 20
33.777
  0
LWPOLYLINE
  5
281
100
AcDbEntity
  8
PART_PADS_SMD_BTM
100
AcDbPolyline
 90
        4
 70
         1
 43
0.0
 10
34.0542
 20
33.712
 10
34.0542
 20
37.072
 10
38.9142
 20
37.072
 10
38.9142
 20
33.712
  0
LWPOLYLINE
  5
282
100
AcDbEntity
  8
PART_PADS_SMD_BTM
100
AcDbPolyline
 90
        4
 70
         1
 43
0.0
 10
95.477
 20
52.788
 10
95.477
 20
53.138
 10
96.977
 20
53.138
 10
96.977
 20
52.788
  0
LWPOLYLINE
  5
283
100
AcDbEntity
  8
PART_PADS_SMD_BTM
100
AcDbPolyline
 90
        4
 70
         1
 43
0.0
 10
95.477
 20
49.788
 10
95.477
 20
50.138
 10
96.977
 20
50.138
 10
96.977
 20
49.788
  0
LWPOLYLINE
  5
284
100
AcDbEntity
  8
PART_PADS_SMD_BTM
100
AcDbPolyline
 90
        4
 70
         1
 43
0.0
 10
95.477
 20
49.288
 10
95.477
 20
49.638
 10
96.977
 20
49.638
 10
96.977
 20
49.288
  0
LWPOLYLINE
  5
285
100
AcDbEntity
  8
PART_PADS_SMD_BTM
100
AcDbPolyline
 90
        4
 70
         1
 43
0.0
 10
95.477
 20
45.288
 10
95.477
 20
45.638
 10
96.977
 20
45.638
 10
96.977
 20
45.288
  0
LWPOLYLINE
  5
286
100
AcDbEntity
  8
PART_PADS_SMD_BTM
100
AcDbPolyline
 90
        4
 70
         1
 43
0.0
 10
95.477
 20
44.788
 10
95.477
 20
45.138
 10
96.977
 20
45.138
 10
96.977
 20
44.788
  0
LWPOLYLINE
  5
287
100
AcDbEntity
  8
PART_PADS_SMD_BTM
100
AcDbPolyline
 90
        4
 70
         1
 43
0.0
 10
95.477
 20
43.788
 10
95.477
 20
44.138
 10
96.977
 20
44.138
 10
96.977
 20
43.788
  0
LWPOLYLINE
  5
288
100
AcDbEntity
  8
PART_PADS_SMD_BTM
100
AcDbPolyline
 90
        4
 70
         1
 43
0.0
 10
95.477
 20
43.288
 10
95.477
 20
43.638
 10
96.977
 20
43.638
 10
96.977
 20
43.288
  0
LWPOLYLINE
  5
289
100
AcDbEntity
  8
PART_PADS_SMD_BTM
100
AcDbPolyline
 90
        4
 70
         1
 43
0.0
 10
95.477
 20
42.288
 10
95.477
 20
42.638
 10
96.977
 20
42.638
 10
96.977
 20
42.288
  0
LWPOLYLINE
  5
28A
100
AcDbEntity
  8
PART_PADS_SMD_BTM
100
AcDbPolyline
 90
        4
 70
         1
 43
0.0
 10
95.477
 20
41.788
 10
95.477
 20
42.138
 10
96.977
 20
42.138
 10
96.977
 20
41.788
  0
LWPOLYLINE
  5
28B
100
AcDbEntity
  8
PART_PADS_SMD_BTM
100
AcDbPolyline
 90
        4
 70
         1
 43
0.0
 10
95.477
 20
40.788
 10
95.477
 20
41.138
 10
96.977
 20
41.138
 10
96.977
 20
40.788
  0
LWPOLYLINE
  5
28C
100
AcDbEntity
  8
PART_PADS_SMD_BTM
100
AcDbPolyline
 90
        4
 70
         1
 43
0.0
 10
95.477
 20
40.288
 10
95.477
 20
40.638
 10
96.977
 20
40.638
 10
96.977
 20
40.288
  0
LWPOLYLINE
  5
28D
100
AcDbEntity
  8
PART_PADS_SMD_BTM
100
AcDbPolyline
 90
        4
 70
         1
 43
0.0
 10
95.477
 20
39.288
 10
95.477
 20
39.638
 10
96.977
 20
39.638
 10
96.977
 20
39.288
  0
LWPOLYLINE
  5
28E
100
AcDbEntity
  8
PART_PADS_SMD_BTM
100
AcDbPolyline
 90
        4
 70
         1
 43
0.0
 10
95.477
 20
38.788
 10
95.477
 20
39.138
 10
96.977
 20
39.138
 10
96.977
 20
38.788
  0
LWPOLYLINE
  5
28F
100
AcDbEntity
  8
PART_PADS_SMD_BTM
100
AcDbPolyline
 90
        4
 70
         1
 43
0.0
 10
95.477
 20
37.788
 10
95.477
 20
38.138
 10
96.977
 20
38.138
 10
96.977
 20
37.788
  0
LWPOLYLINE
  5
290
100
AcDbEntity
  8
PART_PADS_SMD_BTM
100
AcDbPolyline
 90
        4
 70
         1
 43
0.0
 10
95.477
 20
37.288
 10
95.477
 20
37.638
 10
96.977
 20
37.638
 10
96.977
 20
37.288
  0
LWPOLYLINE
  5
291
100
AcDbEntity
  8
PART_PADS_SMD_BTM
100
AcDbPolyline
 90
        4
 70
         1
 43
0.0
 10
95.477
 20
54.788
 10
95.477
 20
55.138
 10
96.977
 20
55.138
 10
96.977
 20
54.788
  0
LWPOLYLINE
  5
292
100
AcDbEntity
  8
PART_PADS_SMD_BTM
100
AcDbPolyline
 90
        4
 70
         1
 43
0.0
 10
95.477
 20
54.288
 10
95.477
 20
54.638
 10
96.977
 20
54.638
 10
96.977
 20
54.288
  0
LWPOLYLINE
  5
293
100
AcDbEntity
  8
PART_PADS_SMD_BTM
100
AcDbPolyline
 90
        4
 70
         1
 43
0.0
 10
95.477
 20
53.788
 10
95.477
 20
54.138
 10
96.977
 20
54.138
 10
96.977
 20
53.788
  0
LWPOLYLINE
  5
294
100
AcDbEntity
  8
PART_PADS_SMD_BTM
100
AcDbPolyline
 90
        4
 70
         1
 43
0.0
 10
95.477
 20
50.288
 10
95.477
 20
50.638
 10
96.977
 20
50.638
 10
96.977
 20
50.288
  0
LWPOLYLINE
  5
295
100
AcDbEntity
  8
PART_PADS_SMD_BTM
100
AcDbPolyline
 90
        4
 70
         1
 43
0.0
 10
95.477
 20
48.788
 10
95.477
 20
49.138
 10
96.977
 20
49.138
 10
96.977
 20
48.788
  0
LWPOLYLINE
  5
296
100
AcDbEntity
  8
PART_PADS_SMD_BTM
100
AcDbPolyline
 90
        4
 70
         1
 43
0.0
 10
95.477
 20
47.288
 10
95.477
 20
47.638
 10
96.977
 20
47.638
 10
96.977
 20
47.288
  0
LWPOLYLINE
  5
297
100
AcDbEntity
  8
PART_PADS_SMD_BTM
100
AcDbPolyline
 90
        4
 70
         1
 43
0.0
 10
95.477
 20
45.788
 10
95.477
 20
46.138
 10
96.977
 20
46.138
 10
96.977
 20
45.788
  0
LWPOLYLINE
  5
298
100
AcDbEntity
  8
PART_PADS_SMD_BTM
100
AcDbPolyline
 90
        4
 70
         1
 43
0.0
 10
95.477
 20
44.288
 10
95.477
 20
44.638
 10
96.977
 20
44.638
 10
96.977
 20
44.288
  0
LWPOLYLINE
  5
299
100
AcDbEntity
  8
PART_PADS_SMD_BTM
100
AcDbPolyline
 90
        4
 70
         1
 43
0.0
 10
95.477
 20
42.788
 10
95.477
 20
43.138
 10
96.977
 20
43.138
 10
96.977
 20
42.788
  0
LWPOLYLINE
  5
29A
100
AcDbEntity
  8
PART_PADS_SMD_BTM
100
AcDbPolyline
 90
        4
 70
         1
 43
0.0
 10
95.477
 20
41.288
 10
95.477
 20
41.638
 10
96.977
 20
41.638
 10
96.977
 20
41.288
  0
LWPOLYLINE
  5
29B
100
AcDbEntity
  8
PART_PADS_SMD_BTM
100
AcDbPolyline
 90
        4
 70
         1
 43
0.0
 10
95.477
 20
39.788
 10
95.477
 20
40.138
 10
96.977
 20
40.138
 10
96.977
 20
39.788
  0
LWPOLYLINE
  5
29C
100
AcDbEntity
  8
PART_PADS_SMD_BTM
100
AcDbPolyline
 90
        4
 70
         1
 43
0.0
 10
95.477
 20
38.288
 10
95.477
 20
38.638
 10
96.977
 20
38.638
 10
96.977
 20
38.288
  0
LWPOLYLINE
  5
29D
100
AcDbEntity
  8
PART_PADS_SMD_BTM
100
AcDbPolyline
 90
        4
 70
         1
 43
0.0
 10
95.477
 20
36.788
 10
95.477
 20
37.138
 10
96.977
 20
37.138
 10
96.977
 20
36.788
  0
LWPOLYLINE
  5
29E
100
AcDbEntity
  8
PART_PADS_SMD_BTM
100
AcDbPolyline
 90
        4
 70
         1
 43
0.0
 10
95.477
 20
36.288
 10
95.477
 20
36.638
 10
96.977
 20
36.638
 10
96.977
 20
36.288
  0
LWPOLYLINE
  5
29F
100
AcDbEntity
  8
PART_PADS_SMD_BTM
100
AcDbPolyline
 90
        4
 70
         1
 43
0.0
 10
95.477
 20
53.288
 10
95.477
 20
53.638
 10
96.977
 20
53.638
 10
96.977
 20
53.288
  0
LWPOLYLINE
  5
2A0
100
AcDbEntity
  8
PART_PADS_SMD_BTM
100
AcDbPolyline
 90
        4
 70
         1
 43
0.0
 10
95.477
 20
46.788
 10
95.477
 20
47.138
 10
96.977
 20
47.138
 10
96.977
 20
46.788
  0
LWPOLYLINE
  5
2A1
100
AcDbEntity
  8
PART_PADS_SMD_BTM
100
AcDbPolyline
 90
        4
 70
         1
 43
0.0
 10
95.477
 20
46.288
 10
95.477
 20
46.638
 10
96.977
 20
46.638
 10
96.977
 20
46.288
  0
LWPOLYLINE
  5
2A2
100
AcDbEntity
  8
PART_PADS_SMD_BTM
100
AcDbPolyline
 90
        4
 70
         1
 43
0.0
 10
95.477
 20
47.788
 10
95.477
 20
48.138
 10
96.977
 20
48.138
 10
96.977
 20
47.788
  0
LWPOLYLINE
  5
2A3
100
AcDbEntity
  8
PART_PADS_SMD_BTM
100
AcDbPolyline
 90
        4
 70
         1
 43
0.0
 10
95.477
 20
48.288
 10
95.477
 20
48.638
 10
96.977
 20
48.638
 10
96.977
 20
48.288
  0
CIRCLE
  5
2A4
100
AcDbEntity
  8
PART_PADS_SMD_BTM
100
AcDbCircle
 10
64.905
 20
15.3416
 30
0.0
 40
0.2667
  0
CIRCLE
  5
2A5
100
AcDbEntity
  8
PART_PADS_SMD_BTM
100
AcDbCircle
 10
65.905
 20
15.3416
 30
0.0
 40
0.2667
  0
CIRCLE
  5
2A6
100
AcDbEntity
  8
PART_PADS_SMD_BTM
100
AcDbCircle
 10
56.6674
 20
16.1878
 30
0.0
 40
0.2667
  0
CIRCLE
  5
2A7
100
AcDbEntity
  8
PART_PADS_SMD_BTM
100
AcDbCircle
 10
56.6674
 20
17.1878
 30
0.0
 40
0.2667
  0
CIRCLE
  5
2A8
100
AcDbEntity
  8
PART_PADS_SMD_BTM
100
AcDbCircle
 10
64.905
 20
14.351
 30
0.0
 40
0.2667
  0
CIRCLE
  5
2A9
100
AcDbEntity
  8
PART_PADS_SMD_BTM
100
AcDbCircle
 10
65.905
 20
14.351
 30
0.0
 40
0.2667
  0
CIRCLE
  5
2AA
100
AcDbEntity
  8
PART_PADS_SMD_BTM
100
AcDbCircle
 10
65.0494
 20
8.1868
 30
0.0
 40
0.2667
  0
CIRCLE
  5
2AB
100
AcDbEntity
  8
PART_PADS_SMD_BTM
100
AcDbCircle
 10
65.0494
 20
9.1868
 30
0.0
 40
0.2667
  0
CIRCLE
  5
2AC
100
AcDbEntity
  8
PART_PADS_SMD_BTM
100
AcDbCircle
 10
64.905
 20
13.208
 30
0.0
 40
0.2667
  0
CIRCLE
  5
2AD
100
AcDbEntity
  8
PART_PADS_SMD_BTM
100
AcDbCircle
 10
65.905
 20
13.208
 30
0.0
 40
0.2667
  0
CIRCLE
  5
2AE
100
AcDbEntity
  8
PART_PADS_SMD_BTM
100
AcDbCircle
 10
66.032
 20
7.112
 30
0.0
 40
0.2667
  0
CIRCLE
  5
2AF
100
AcDbEntity
  8
PART_PADS_SMD_BTM
100
AcDbCircle
 10
65.032
 20
7.112
 30
0.0
 40
0.2667
  0
LWPOLYLINE
  5
2B0
100
AcDbEntity
  8
PART_PADS_SMD_BTM
100
AcDbPolyline
 90
        4
 70
         1
 43
0.0
 10
60.325
 20
4.1402
 10
60.325
 20
4.9022
 10
61.087
 20
4.9022
 10
61.087
 20
4.1402
  0
LWPOLYLINE
  5
2B1
100
AcDbEntity
  8
PART_PADS_SMD_BTM
100
AcDbPolyline
 90
        4
 70
         1
 43
0.0
 10
58.801
 20
4.1402
 10
58.801
 20
4.9022
 10
59.563
 20
4.9022
 10
59.563
 20
4.1402
  0
CIRCLE
  5
2B2
100
AcDbEntity
  8
PART_PADS_SMD_BTM
100
AcDbCircle
 10
55.1942
 20
4.4022
 30
0.0
 40
0.2667
  0
CIRCLE
  5
2B3
100
AcDbEntity
  8
PART_PADS_SMD_BTM
100
AcDbCircle
 10
55.1942
 20
5.4022
 30
0.0
 40
0.2667
  0
CIRCLE
  5
2B4
100
AcDbEntity
  8
PART_PADS_SMD_BTM
100
AcDbCircle
 10
56.1768
 20
3.2512
 30
0.0
 40
0.2667
  0
CIRCLE
  5
2B5
100
AcDbEntity
  8
PART_PADS_SMD_BTM
100
AcDbCircle
 10
55.1768
 20
3.2512
 30
0.0
 40
0.2667
  0
CIRCLE
  5
2B6
100
AcDbEntity
  8
PART_PADS_SMD_BTM
100
AcDbCircle
 10
58.0136
 20
4.2084
 30
0.0
 40
0.2667
  0
CIRCLE
  5
2B7
100
AcDbEntity
  8
PART_PADS_SMD_BTM
100
AcDbCircle
 10
58.0136
 20
3.2084
 30
0.0
 40
0.2667
  0
CIRCLE
  5
2B8
100
AcDbEntity
  8
PART_PADS_SMD_BTM
100
AcDbCircle
 10
52.4938
 20
6.2484
 30
0.0
 40
0.2667
  0
CIRCLE
  5
2B9
100
AcDbEntity
  8
PART_PADS_SMD_BTM
100
AcDbCircle
 10
51.4938
 20
6.2484
 30
0.0
 40
0.2667
  0
CIRCLE
  5
2BA
100
AcDbEntity
  8
PART_PADS_SMD_BTM
100
AcDbCircle
 10
64.905
 20
12.192
 30
0.0
 40
0.2667
  0
CIRCLE
  5
2BB
100
AcDbEntity
  8
PART_PADS_SMD_BTM
100
AcDbCircle
 10
65.905
 20
12.192
 30
0.0
 40
0.2667
  0
LWPOLYLINE
  5
2BC
100
AcDbEntity
  8
PART_PADS_SMD_BTM
100
AcDbPolyline
 90
        4
 70
         1
 43
0.0
 10
56.8198
 20
4.0132
 10
56.8198
 20
4.6228
 10
57.3278
 20
4.6228
 10
57.3278
 20
4.0132
  0
LWPOLYLINE
  5
2BD
100
AcDbEntity
  8
PART_PADS_SMD_BTM
100
AcDbPolyline
 90
        4
 70
         1
 43
0.0
 10
56.8198
 20
2.8956
 10
56.8198
 20
3.5052
 10
57.3278
 20
3.5052
 10
57.3278
 20
2.8956
  0
CIRCLE
  5
2BE
100
AcDbEntity
  8
PART_PADS_SMD_BTM
100
AcDbCircle
 10
78.6676
 20
16.4028
 30
0.0
 40
0.2667
  0
CIRCLE
  5
2BF
100
AcDbEntity
  8
PART_PADS_SMD_BTM
100
AcDbCircle
 10
78.6676
 20
15.4028
 30
0.0
 40
0.2667
  0
CIRCLE
  5
2C0
100
AcDbEntity
  8
PART_PADS_SMD_BTM
100
AcDbCircle
 10
79.6836
 20
16.4282
 30
0.0
 40
0.2667
  0
CIRCLE
  5
2C1
100
AcDbEntity
  8
PART_PADS_SMD_BTM
100
AcDbCircle
 10
79.6836
 20
15.4282
 30
0.0
 40
0.2667
  0
CIRCLE
  5
2C2
100
AcDbEntity
  8
PART_PADS_SMD_BTM
100
AcDbCircle
 10
80.6742
 20
16.4282
 30
0.0
 40
0.2667
  0
CIRCLE
  5
2C3
100
AcDbEntity
  8
PART_PADS_SMD_BTM
100
AcDbCircle
 10
80.6742
 20
15.4282
 30
0.0
 40
0.2667
  0
LWPOLYLINE
  5
2C4
100
AcDbEntity
  8
PART_PADS_SMD_BTM
100
AcDbPolyline
 90
        4
 70
         1
 43
0.0
 10
13.1572
 20
43.3832
 10
13.1572
 20
44.196
 10
13.9192
 20
44.196
 10
13.9192
 20
43.3832
  0
LWPOLYLINE
  5
2C5
100
AcDbEntity
  8
PART_PADS_SMD_BTM
100
AcDbPolyline
 90
        4
 70
         1
 43
0.0
 10
13.1572
 20
44.9072
 10
13.1572
 20
45.72
 10
13.9192
 20
45.72
 10
13.9192
 20
44.9072
  0
LWPOLYLINE
  5
2C6
100
AcDbEntity
  8
PART_PADS_SMD_BTM
100
AcDbPolyline
 90
        4
 70
         1
 43
0.0
 10
6.096
 20
40.7416
 10
6.096
 20
41.5036
 10
6.9088
 20
41.5036
 10
6.9088
 20
40.7416
  0
LWPOLYLINE
  5
2C7
100
AcDbEntity
  8
PART_PADS_SMD_BTM
100
AcDbPolyline
 90
        4
 70
         1
 43
0.0
 10
4.572
 20
40.7416
 10
4.572
 20
41.5036
 10
5.3848
 20
41.5036
 10
5.3848
 20
40.7416
  0
LWPOLYLINE
  5
2C8
100
AcDbEntity
  8
PART_PADS_SMD_BTM
100
AcDbPolyline
 90
        4
 70
         1
 43
0.0
 10
5.8208
 20
41.881
 10
5.8208
 20
43.681
 10
9.5208
 20
43.681
 10
9.5208
 20
41.881
  0
LWPOLYLINE
  5
2C9
100
AcDbEntity
  8
PART_PADS_SMD_BTM
100
AcDbPolyline
 90
        4
 70
         1
 43
0.0
 10
5.8208
 20
45.981
 10
5.8208
 20
47.781
 10
9.5208
 20
47.781
 10
9.5208
 20
45.981
  0
LWPOLYLINE
  5
2CA
100
AcDbEntity
  8
PART_PADS_SMD_BTM
100
AcDbPolyline
 90
        4
 70
         1
 43
0.0
 10
14.4272
 20
42.6466
 10
14.4272
 20
44.2214
 10
17.2212
 20
44.2214
 10
17.2212
 20
42.6466
  0
LWPOLYLINE
  5
2CB
100
AcDbEntity
  8
PART_PADS_SMD_BTM
100
AcDbPolyline
 90
        4
 70
         1
 43
0.0
 10
14.4272
 20
45.4406
 10
14.4272
 20
47.0154
 10
17.2212
 20
47.0154
 10
17.2212
 20
45.4406
  0
LWPOLYLINE
  5
2CC
100
AcDbEntity
  8
PART_PADS_SMD_BTM
100
AcDbPolyline
 90
        4
 70
         1
 43
0.0
 10
33.909
 20
39.9542
 10
33.909
 20
40.7162
 10
34.671
 20
40.7162
 10
34.671
 20
39.9542
  0
LWPOLYLINE
  5
2CD
100
AcDbEntity
  8
PART_PADS_SMD_BTM
100
AcDbPolyline
 90
        4
 70
         1
 43
0.0
 10
35.433
 20
39.9542
 10
35.433
 20
40.7162
 10
36.195
 20
40.7162
 10
36.195
 20
39.9542
  0
LWPOLYLINE
  5
2CE
100
AcDbEntity
  8
PART_PADS_SMD_BTM
100
AcDbPolyline
 90
        4
 70
         1
 43
0.0
 10
79.252
 20
57.1968
 10
79.252
 20
57.7968
 10
79.752
 20
57.7968
 10
79.752
 20
57.1968
  0
LWPOLYLINE
  5
2CF
100
AcDbEntity
  8
PART_PADS_SMD_BTM
100
AcDbPolyline
 90
        4
 70
         1
 43
0.0
 10
79.252
 20
56.0968
 10
79.252
 20
56.6968
 10
79.752
 20
56.6968
 10
79.752
 20
56.0968
  0
LWPOLYLINE
  5
2D0
100
AcDbEntity
  8
PART_PADS_SMD_BTM
100
AcDbPolyline
 90
        4
 70
         1
 43
0.0
 10
40.2082
 20
50.4176
 10
40.2082
 20
51.9416
 10
43.2054
 20
51.9416
 10
43.2054
 20
50.4176
  0
LWPOLYLINE
  5
2D1
100
AcDbEntity
  8
PART_PADS_SMD_BTM
100
AcDbPolyline
 90
        4
 70
         1
 43
0.0
 10
40.2082
 20
53.4176
 10
40.2082
 20
54.9416
 10
43.2054
 20
54.9416
 10
43.2054
 20
53.4176
  0
LWPOLYLINE
  5
2D2
100
AcDbEntity
  8
PART_PADS_SMD_BTM
100
AcDbPolyline
 90
        4
 70
         1
 43
0.0
 10
43.9674
 20
50.443
 10
43.9674
 20
51.967
 10
46.9646
 20
51.967
 10
46.9646
 20
50.443
  0
LWPOLYLINE
  5
2D3
100
AcDbEntity
  8
PART_PADS_SMD_BTM
100
AcDbPolyline
 90
        4
 70
         1
 43
0.0
 10
43.9674
 20
53.443
 10
43.9674
 20
54.967
 10
46.9646
 20
54.967
 10
46.9646
 20
53.443
  0
LWPOLYLINE
  5
2D4
100
AcDbEntity
  8
PART_PADS_SMD_BTM
100
AcDbPolyline
 90
        4
 70
         1
 43
0.0
 10
25.2476
 20
46.204
 10
25.2476
 20
47.728
 10
28.2448
 20
47.728
 10
28.2448
 20
46.204
  0
LWPOLYLINE
  5
2D5
100
AcDbEntity
  8
PART_PADS_SMD_BTM
100
AcDbPolyline
 90
        4
 70
         1
 43
0.0
 10
25.2476
 20
43.204
 10
25.2476
 20
44.728
 10
28.2448
 20
44.728
 10
28.2448
 20
43.204
  0
LWPOLYLINE
  5
2D6
100
AcDbEntity
  8
PART_PADS_SMD_BTM
100
AcDbPolyline
 90
        4
 70
         1
 43
0.0
 10
48.0314
 20
50.316
 10
48.0314
 20
51.84
 10
51.0286
 20
51.84
 10
51.0286
 20
50.316
  0
LWPOLYLINE
  5
2D7
100
AcDbEntity
  8
PART_PADS_SMD_BTM
100
AcDbPolyline
 90
        4
 70
         1
 43
0.0
 10
48.0314
 20
53.316
 10
48.0314
 20
54.84
 10
51.0286
 20
54.84
 10
51.0286
 20
53.316
  0
LWPOLYLINE
  5
2D8
100
AcDbEntity
  8
PART_PADS_SMD_BTM
100
AcDbPolyline
 90
        4
 70
         1
 43
0.0
 10
29.0576
 20
46.204
 10
29.0576
 20
47.728
 10
32.0548
 20
47.728
 10
32.0548
 20
46.204
  0
LWPOLYLINE
  5
2D9
100
AcDbEntity
  8
PART_PADS_SMD_BTM
100
AcDbPolyline
 90
        4
 70
         1
 43
0.0
 10
29.0576
 20
43.204
 10
29.0576
 20
44.728
 10
32.0548
 20
44.728
 10
32.0548
 20
43.204
  0
CIRCLE
  5
2DA
100
AcDbEntity
  8
PART_PADS_SMD_BTM
100
AcDbCircle
 10
38.5318
 20
47.0488
 30
0.0
 40
0.2667
  0
CIRCLE
  5
2DB
100
AcDbEntity
  8
PART_PADS_SMD_BTM
100
AcDbCircle
 10
38.5318
 20
48.0488
 30
0.0
 40
0.2667
  0
LWPOLYLINE
  5
2DC
100
AcDbEntity
  8
PART_PADS_SMD_BTM
100
AcDbPolyline
 90
        4
 70
         1
 43
0.0
 10
36.6268
 20
45.6438
 10
36.6268
 20
46.4058
 10
37.4396
 20
46.4058
 10
37.4396
 20
45.6438
  0
LWPOLYLINE
  5
2DD
100
AcDbEntity
  8
PART_PADS_SMD_BTM
100
AcDbPolyline
 90
        4
 70
         1
 43
0.0
 10
38.1508
 20
45.6438
 10
38.1508
 20
46.4058
 10
38.9636
 20
46.4058
 10
38.9636
 20
45.6438
  0
CIRCLE
  5
2DE
100
AcDbEntity
  8
PART_PADS_SMD_BTM
100
AcDbCircle
 10
36.6348
 20
48.0568
 30
0.0
 40
0.2667
  0
CIRCLE
  5
2DF
100
AcDbEntity
  8
PART_PADS_SMD_BTM
100
AcDbCircle
 10
37.6348
 20
48.0568
 30
0.0
 40
0.2667
  0
LWPOLYLINE
  5
2E0
100
AcDbEntity
  8
PART_PADS_SMD_BTM
100
AcDbPolyline
 90
        4
 70
         1
 43
0.0
 10
32.6898
 20
45.4152
 10
32.6898
 20
46.228
 10
33.4518
 20
46.228
 10
33.4518
 20
45.4152
  0
LWPOLYLINE
  5
2E1
100
AcDbEntity
  8
PART_PADS_SMD_BTM
100
AcDbPolyline
 90
        4
 70
         1
 43
0.0
 10
32.6898
 20
43.8912
 10
32.6898
 20
44.704
 10
33.4518
 20
44.704
 10
33.4518
 20
43.8912
  0
LWPOLYLINE
  5
2E2
100
AcDbEntity
  8
PART_PADS_SMD_BTM
100
AcDbPolyline
 90
        4
 70
         1
 43
0.0
 10
80.268
 20
57.1968
 10
80.268
 20
57.7968
 10
80.768
 20
57.7968
 10
80.768
 20
57.1968
  0
LWPOLYLINE
  5
2E3
100
AcDbEntity
  8
PART_PADS_SMD_BTM
100
AcDbPolyline
 90
        4
 70
         1
 43
0.0
 10
80.268
 20
56.0968
 10
80.268
 20
56.6968
 10
80.768
 20
56.6968
 10
80.768
 20
56.0968
  0
ENDSEC
  0
SECTION
  2
OBJECTS
  0
DICTIONARY
  5
16
100
AcDbDictionary
  3
ACAD_GROUP
350
1A
  3
ACAD_MLINESTYLE
350
1B
  0
DICTIONARY
  5
17
102
{ACAD_REACTORS
330
19
102
}
100
AcDbDictionary
  0
DICTIONARY
  5
18
102
{ACAD_REACTORS
330
19
102
}
100
AcDbDictionary
  3
STANDARD
350
1C
  0
MLINESTYLE
  5
19
102
{ACAD_REACTORS
330
1B
102
}
100
AcDbMlineStyle
  2
STANDARD
 70
         0
  3

 62
         0
 51
90.0
 52
90.0
 71
        2
 49
0.5
 62
         256
  6
BYLAYER
 49
-0.5
 62
         256
  6
BYLAYER
  0
DICTIONARY
  5
1A
102
{ACAD_REACTORS
330
19
102
}
100
AcDbDictionary
  0
ENDSEC
  0
EOF
